ISO-10303-21;
HEADER;
FILE_DESCRIPTION (( 'STEP AP203' ),
    '1' );
FILE_NAME ('BE2AAAAW.STEP',
    '2014-06-13T19:53:33',
    ( 'Intern' ),
    ( '' ),
    'SwSTEP 2.0',
    'SolidWorks 2012',
    '' );
FILE_SCHEMA (( 'CONFIG_CONTROL_DESIGN' ));
ENDSEC;

DATA;
#1 = DIRECTION ( 'NONE',  ( -1.000000000000000000, -0.0000000000000000000, -0.0000000000000000000 ) ) ;
#2 = DIRECTION ( 'NONE',  ( -0.0000000000000000000, -1.000000000000000000, -0.0000000000000000000 ) ) ;
#3 = CARTESIAN_POINT ( 'NONE',  ( -0.9650000000000005200, 0.3300000000000000200, -0.3899999999999997900 ) ) ;
#4 = DIRECTION ( 'NONE',  ( -1.000000000000000000, -0.0000000000000000000, -0.0000000000000000000 ) ) ;
#5 = CARTESIAN_POINT ( 'NONE',  ( 0.0000000000000000000, 0.0000000000000000000, -0.2149999999999999700 ) ) ;
#6 = CARTESIAN_POINT ( 'NONE',  ( -0.9650000000000005200, 0.0000000000000000000, -0.3899999999999997900 ) ) ;
#7 = CARTESIAN_POINT ( 'NONE',  ( 0.0000000000000000000, 0.0000000000000000000, 0.1349999999999999800 ) ) ;
#8 = DIRECTION ( 'NONE',  ( -0.0000000000000000000, -1.000000000000000000, -0.0000000000000000000 ) ) ;
#9 = CARTESIAN_POINT ( 'NONE',  ( -0.9650000000000005200, 0.3300000000000000200, 0.3900000000000002400 ) ) ;
#10 = DIRECTION ( 'NONE',  ( 0.0000000000000000000, 0.0000000000000000000, -1.000000000000000000 ) ) ;
#11 = CARTESIAN_POINT ( 'NONE',  ( -0.9650000000000005200, 0.3300000000000000200, -0.3899999999999997900 ) ) ;
#12 = CARTESIAN_POINT ( 'NONE',  ( -0.9650000000000005200, 0.0000000000000000000, 0.3900000000000002400 ) ) ;
#13 = DIRECTION ( 'NONE',  ( -0.0000000000000000000, -1.000000000000000000, -0.0000000000000000000 ) ) ;
#14 = CARTESIAN_POINT ( 'NONE',  ( 0.9649999999999994100, 0.3300000000000000200, 0.3900000000000002400 ) ) ;
#15 = DIRECTION ( 'NONE',  ( 0.0000000000000000000, 0.0000000000000000000, -1.000000000000000000 ) ) ;
#16 = CARTESIAN_POINT ( 'NONE',  ( 0.9649999999999994100, 0.0000000000000000000, 0.3900000000000002400 ) ) ;
#17 = CARTESIAN_POINT ( 'NONE',  ( 4.898587196589415100E-018, 0.0000000000000000000, 0.2149999999999999700 ) ) ;
#18 = CARTESIAN_POINT ( 'NONE',  ( 0.9649999999999994100, 0.3300000000000000200, 0.3900000000000002400 ) ) ;
#19 = DIRECTION ( 'NONE',  ( 0.0000000000000000000, 0.0000000000000000000, -1.000000000000000000 ) ) ;
#20 = DIRECTION ( 'NONE',  ( 0.0000000000000000000, -1.000000000000000000, 0.0000000000000000000 ) ) ;
#21 = CARTESIAN_POINT ( 'NONE',  ( 0.0000000000000000000, 0.0000000000000000000, 0.1749999999999999900 ) ) ;
#22 = CARTESIAN_POINT ( 'NONE',  ( 0.9649999999999994100, 0.0000000000000000000, 0.3900000000000002400 ) ) ;
#23 = CARTESIAN_POINT ( 'NONE',  ( 4.898587196589413500E-018, 0.0000000000000000000, -0.1349999999999999800 ) ) ;
#24 = CARTESIAN_POINT ( 'NONE',  ( 0.9649999999999994100, 0.3300000000000000200, -0.3899999999999997900 ) ) ;
#25 = CARTESIAN_POINT ( 'NONE',  ( 0.9649999999999994100, 0.3300000000000000200, 0.3900000000000002400 ) ) ;
#26 = CARTESIAN_POINT ( 'NONE',  ( 0.0000000000000000000, 0.2000000000000000100, -0.2149999999999999700 ) ) ;
#27 = CARTESIAN_POINT ( 'NONE',  ( 0.0000000000000000000, 0.2000000000000000100, 0.1349999999999999800 ) ) ;
#28 = DIRECTION ( 'NONE',  ( 0.0000000000000000000, 0.0000000000000000000, -1.000000000000000000 ) ) ;
#29 = DIRECTION ( 'NONE',  ( 0.0000000000000000000, -1.000000000000000000, 0.0000000000000000000 ) ) ;
#30 = CARTESIAN_POINT ( 'NONE',  ( 0.0000000000000000000, 0.2000000000000000100, 0.1749999999999999900 ) ) ;
#31 = CARTESIAN_POINT ( 'NONE',  ( 4.898587196589413500E-018, 0.2000000000000000100, 0.2149999999999999700 ) ) ;
#32 = DIRECTION ( 'NONE',  ( -0.0000000000000000000, -1.000000000000000000, -0.0000000000000000000 ) ) ;
#33 = DIRECTION ( 'NONE',  ( -0.0000000000000000000, -1.000000000000000000, -0.0000000000000000000 ) ) ;
#34 = DIRECTION ( 'NONE',  ( 0.0000000000000000000, 0.0000000000000000000, -1.000000000000000000 ) ) ;
#35 = DIRECTION ( 'NONE',  ( 0.0000000000000000000, -1.000000000000000000, 0.0000000000000000000 ) ) ;
#36 = CARTESIAN_POINT ( 'NONE',  ( 0.0000000000000000000, 0.0000000000000000000, -0.1749999999999999900 ) ) ;
#37 = DIRECTION ( 'NONE',  ( -0.0000000000000000000, -1.000000000000000000, -0.0000000000000000000 ) ) ;
#38 = CARTESIAN_POINT ( 'NONE',  ( 4.898587196589413500E-018, 0.2000000000000000100, -0.1349999999999999800 ) ) ;
#39 = CARTESIAN_POINT ( 'NONE',  ( 0.0000000000000000000, 0.2000000000000000100, -0.2149999999999999700 ) ) ;
#40 = DIRECTION ( 'NONE',  ( -0.0000000000000000000, -1.000000000000000000, -0.0000000000000000000 ) ) ;
#41 = DIRECTION ( 'NONE',  ( -1.000000000000000000, 0.0000000000000000000, -0.0000000000000000000 ) ) ;
#42 = DIRECTION ( 'NONE',  ( 0.0000000000000000000, 0.0000000000000000000, -1.000000000000000000 ) ) ;
#43 = PLANE ( 'NONE',  #356 ) ;
#44 = DIRECTION ( 'NONE',  ( 0.0000000000000000000, -0.0000000000000000000, -1.000000000000000000 ) ) ;
#45 = CARTESIAN_POINT ( 'NONE',  ( -0.9650000000000005200, 0.3300000000000000200, 0.3900000000000002400 ) ) ;
#46 = PLANE ( 'NONE',  #358 ) ;
#47 = CARTESIAN_POINT ( 'NONE',  ( 0.0000000000000000000, 0.0000000000000000000, 0.0000000000000000000 ) ) ;
#48 = CARTESIAN_POINT ( 'NONE',  ( 0.0000000000000000000, 0.2000000000000000100, 0.1749999999999999900 ) ) ;
#49 = DIRECTION ( 'NONE',  ( -0.0000000000000000000, -1.000000000000000000, -0.0000000000000000000 ) ) ;
#50 = DIRECTION ( 'NONE',  ( 0.0000000000000000000, 0.0000000000000000000, 1.000000000000000000 ) ) ;
#51 = DIRECTION ( 'NONE',  ( -1.000000000000000000, 0.0000000000000000000, 0.0000000000000000000 ) ) ;
#52 = DIRECTION ( 'NONE',  ( 0.0000000000000000000, -1.000000000000000000, 0.0000000000000000000 ) ) ;
#53 = PLANE ( 'NONE',  #360 ) ;
#54 = DIRECTION ( 'NONE',  ( 0.0000000000000000000, -0.0000000000000000000, -1.000000000000000000 ) ) ;
#55 = DIRECTION ( 'NONE',  ( 0.0000000000000000000, -1.000000000000000000, 0.0000000000000000000 ) ) ;
#56 = DIRECTION ( 'NONE',  ( 0.0000000000000000000, 0.0000000000000000000, -1.000000000000000000 ) ) ;
#57 = CARTESIAN_POINT ( 'NONE',  ( 0.9649999999999994100, 0.3300000000000000200, 0.3900000000000002400 ) ) ;
#58 = PLANE ( 'NONE',  #361 ) ;
#59 = CARTESIAN_POINT ( 'NONE',  ( 0.0000000000000000000, 0.2000000000000000100, -0.1749999999999999900 ) ) ;
#60 = DIRECTION ( 'NONE',  ( -0.0000000000000000000, -1.000000000000000000, -0.0000000000000000000 ) ) ;
#61 = DIRECTION ( 'NONE',  ( 0.0000000000000000000, 0.0000000000000000000, -1.000000000000000000 ) ) ;
#62 = DIRECTION ( 'NONE',  ( 1.000000000000000000, -0.0000000000000000000, 0.0000000000000000000 ) ) ;
#63 = CARTESIAN_POINT ( 'NONE',  ( 0.0000000000000000000, 0.2000000000000000100, 0.1749999999999999900 ) ) ;
#64 = PLANE ( 'NONE',  #363 ) ;
#65 = DIRECTION ( 'NONE',  ( 1.000000000000000000, 0.0000000000000000000, -0.0000000000000000000 ) ) ;
#66 = DIRECTION ( 'NONE',  ( 0.0000000000000000000, 0.0000000000000000000, 1.000000000000000000 ) ) ;
#67 = DIRECTION ( 'NONE',  ( 0.0000000000000000000, 0.0000000000000000000, -1.000000000000000000 ) ) ;
#68 = CARTESIAN_POINT ( 'NONE',  ( -0.9650000000000005200, 0.3300000000000000200, 0.3900000000000002400 ) ) ;
#69 = PLANE ( 'NONE',  #364 ) ;
#70 = CARTESIAN_POINT ( 'NONE',  ( 0.0000000000000000000, 0.2000000000000000100, -0.1749999999999999900 ) ) ;
#71 = DIRECTION ( 'NONE',  ( -0.0000000000000000000, -1.000000000000000000, -0.0000000000000000000 ) ) ;
#72 = DIRECTION ( 'NONE',  ( 0.0000000000000000000, -0.0000000000000000000, -1.000000000000000000 ) ) ;
#73 = DIRECTION ( 'NONE',  ( 0.0000000000000000000, -1.000000000000000000, 0.0000000000000000000 ) ) ;
#74 = CARTESIAN_POINT ( 'NONE',  ( -0.9650000000000005200, 0.3300000000000000200, -0.3899999999999997900 ) ) ;
#75 = DIRECTION ( 'NONE',  ( 0.0000000000000000000, 0.0000000000000000000, -1.000000000000000000 ) ) ;
#76 = PLANE ( 'NONE',  #366 ) ;
#77 = CARTESIAN_POINT ( 'NONE',  ( 0.0000000000000000000, 0.2000000000000000100, 0.1749999999999999900 ) ) ;
#78 = DIRECTION ( 'NONE',  ( -0.0000000000000000000, -1.000000000000000000, -0.0000000000000000000 ) ) ;
#79 = DIRECTION ( 'NONE',  ( 0.0000000000000000000, -0.0000000000000000000, -1.000000000000000000 ) ) ;
#80 = DIRECTION ( 'NONE',  ( 0.0000000000000000000, -1.000000000000000000, 0.0000000000000000000 ) ) ;
#81 = DIRECTION ( 'NONE',  ( 0.0000000000000000000, 0.0000000000000000000, -1.000000000000000000 ) ) ;
#82 = CARTESIAN_POINT ( 'NONE',  ( 4.898587196589413500E-018, 0.2000000000000000100, -0.1349999999999999800 ) ) ;
#83 = PLANE ( 'NONE',  #368 ) ;
#84 = CARTESIAN_POINT ( 'NONE',  ( 4.898587196589415100E-018, 0.2000000000000000100, 0.2149999999999999700 ) ) ;
#85 = CARTESIAN_POINT ( 'NONE',  ( 0.0000000000000000000, 0.2000000000000000100, -0.1749999999999999900 ) ) ;
#86 = CARTESIAN_POINT ( 'NONE',  ( 0.0000000000000000000, 0.3300000000000000200, 0.0000000000000000000 ) ) ;
#87 = CARTESIAN_POINT ( 'NONE',  ( 0.0000000000000000000, 0.2000000000000000100, 0.1349999999999999800 ) ) ;
#88 = CARTESIAN_POINT ( 'NONE',  ( 0.9649999999999994100, 0.3300000000000000200, -0.3899999999999997900 ) ) ;
#89 = CARTESIAN_POINT ( 'NONE',  ( 0.9649999999999994100, 0.0000000000000000000, -0.3899999999999997900 ) ) ;
#90 = CARTESIAN_POINT ( 'NONE',  ( -0.9650000000000005200, 0.0000000000000000000, -0.3899999999999997900 ) ) ;
#91 = CARTESIAN_POINT ( 'NONE',  ( -0.9650000000000005200, 0.3300000000000000200, -0.3899999999999997900 ) ) ;
#92 = CARTESIAN_POINT ( 'NONE',  ( -0.9650000000000005200, 0.3300000000000000200, 0.3900000000000002400 ) ) ;
#93 = VECTOR ( 'NONE', #283, 39.37007874015748100 ) ;
#94 = VECTOR ( 'NONE', #286, 39.37007874015748100 ) ;
#95 = LINE ( 'NONE', #285, #93 ) ;
#96 = VECTOR ( 'NONE', #278, 39.37007874015748100 ) ;
#97 = LINE ( 'NONE', #244, #94 ) ;
#98 = VECTOR ( 'NONE', #288, 39.37007874015748100 ) ;
#99 = VECTOR ( 'NONE', #287, 39.37007874015748100 ) ;
#100 = LINE ( 'NONE', #290, #98 ) ;
#101 = VECTOR ( 'NONE', #1, 39.37007874015748100 ) ;
#102 = LINE ( 'NONE', #282, #99 ) ;
#103 = VECTOR ( 'NONE', #2, 39.37007874015748100 ) ;
#104 = LINE ( 'NONE', #9, #96 ) ;
#105 = VECTOR ( 'NONE', #4, 39.37007874015748100 ) ;
#106 = LINE ( 'NONE', #3, #103 ) ;
#107 = VECTOR ( 'NONE', #8, 39.37007874015748100 ) ;
#108 = LINE ( 'NONE', #6, #105 ) ;
#109 = VECTOR ( 'NONE', #10, 39.37007874015748100 ) ;
#110 = LINE ( 'NONE', #11, #101 ) ;
#111 = VECTOR ( 'NONE', #13, 39.37007874015748100 ) ;
#112 = LINE ( 'NONE', #14, #107 ) ;
#113 = VECTOR ( 'NONE', #15, 39.37007874015748100 ) ;
#114 = LINE ( 'NONE', #18, #109 ) ;
#115 = VECTOR ( 'NONE', #32, 39.37007874015748100 ) ;
#116 = LINE ( 'NONE', #24, #111 ) ;
#117 = LINE ( 'NONE', #27, #115 ) ;
#118 = VECTOR ( 'NONE', #33, 39.37007874015748100 ) ;
#119 = LINE ( 'NONE', #22, #113 ) ;
#120 = CIRCLE ( 'NONE', #354, 0.04000000000000000100 ) ;
#121 = VECTOR ( 'NONE', #40, 39.37007874015748100 ) ;
#122 = LINE ( 'NONE', #31, #118 ) ;
#123 = LINE ( 'NONE', #39, #121 ) ;
#124 = LINE ( 'NONE', #38, #125 ) ;
#125 = VECTOR ( 'NONE', #37, 39.37007874015748100 ) ;
#126 = CIRCLE ( 'NONE', #355, 0.04000000000000000100 ) ;
#127 = FACE_BOUND ( 'NONE', #309, .T. ) ;
#128 = CYLINDRICAL_SURFACE ( 'NONE', #359, 0.04000000000000000100 ) ;
#129 = CIRCLE ( 'NONE', #357, 0.03999999999999998000 ) ;
#130 = FACE_BOUND ( 'NONE', #310, .T. ) ;
#131 = FACE_OUTER_BOUND ( 'NONE', #304, .T. ) ;
#132 = CYLINDRICAL_SURFACE ( 'NONE', #362, 0.03999999999999998000 ) ;
#133 = FACE_OUTER_BOUND ( 'NONE', #301, .T. ) ;
#134 = FACE_OUTER_BOUND ( 'NONE', #308, .T. ) ;
#135 = FACE_OUTER_BOUND ( 'NONE', #307, .T. ) ;
#136 = CYLINDRICAL_SURFACE ( 'NONE', #365, 0.03999999999999998000 ) ;
#137 = FACE_OUTER_BOUND ( 'NONE', #313, .T. ) ;
#138 = FACE_OUTER_BOUND ( 'NONE', #311, .T. ) ;
#139 = CYLINDRICAL_SURFACE ( 'NONE', #367, 0.04000000000000000100 ) ;
#140 = FACE_OUTER_BOUND ( 'NONE', #312, .T. ) ;
#141 = FACE_OUTER_BOUND ( 'NONE', #305, .T. ) ;
#142 = FACE_OUTER_BOUND ( 'NONE', #302, .T. ) ;
#143 = FACE_OUTER_BOUND ( 'NONE', #303, .T. ) ;
#144 = FACE_OUTER_BOUND ( 'NONE', #306, .T. ) ;
#145 = FACE_OUTER_BOUND ( 'NONE', #316, .T. ) ;
#146 = VERTEX_POINT ( 'NONE', #5 ) ;
#147 = VERTEX_POINT ( 'NONE', #90 ) ;
#148 = VERTEX_POINT ( 'NONE', #23 ) ;
#149 = VERTEX_POINT ( 'NONE', #12 ) ;
#150 = VERTEX_POINT ( 'NONE', #25 ) ;
#151 = VERTEX_POINT ( 'NONE', #7 ) ;
#152 = VERTEX_POINT ( 'NONE', #26 ) ;
#153 = VERTEX_POINT ( 'NONE', #17 ) ;
#154 = VERTEX_POINT ( 'NONE', #16 ) ;
#155 = VERTEX_POINT ( 'NONE', #92 ) ;
#156 = VERTEX_POINT ( 'NONE', #91 ) ;
#157 = VERTEX_POINT ( 'NONE', #89 ) ;
#158 = VERTEX_POINT ( 'NONE', #87 ) ;
#159 = VERTEX_POINT ( 'NONE', #84 ) ;
#160 = VERTEX_POINT ( 'NONE', #88 ) ;
#161 = ORIENTED_EDGE ( 'NONE', *, *, #390, .F. ) ;
#162 = ORIENTED_EDGE ( 'NONE', *, *, #375, .T. ) ;
#163 = ORIENTED_EDGE ( 'NONE', *, *, #373, .F. ) ;
#164 = ORIENTED_EDGE ( 'NONE', *, *, #383, .F. ) ;
#165 = ORIENTED_EDGE ( 'NONE', *, *, #380, .F. ) ;
#166 = ORIENTED_EDGE ( 'NONE', *, *, #373, .T. ) ;
#167 = ORIENTED_EDGE ( 'NONE', *, *, #376, .F. ) ;
#168 = ORIENTED_EDGE ( 'NONE', *, *, #386, .F. ) ;
#169 = ORIENTED_EDGE ( 'NONE', *, *, #389, .F. ) ;
#170 = ORIENTED_EDGE ( 'NONE', *, *, #374, .F. ) ;
#171 = ORIENTED_EDGE ( 'NONE', *, *, #370, .F. ) ;
#172 = ORIENTED_EDGE ( 'NONE', *, *, #387, .T. ) ;
#173 = ORIENTED_EDGE ( 'NONE', *, *, #388, .F. ) ;
#174 = ORIENTED_EDGE ( 'NONE', *, *, #374, .T. ) ;
#175 = ORIENTED_EDGE ( 'NONE', *, *, #386, .T. ) ;
#176 = ORIENTED_EDGE ( 'NONE', *, *, #379, .F. ) ;
#177 = ORIENTED_EDGE ( 'NONE', *, *, #376, .T. ) ;
#178 = ORIENTED_EDGE ( 'NONE', *, *, #377, .F. ) ;
#179 = ORIENTED_EDGE ( 'NONE', *, *, #379, .T. ) ;
#180 = ORIENTED_EDGE ( 'NONE', *, *, #380, .T. ) ;
#181 = ORIENTED_EDGE ( 'NONE', *, *, #378, .F. ) ;
#182 = ORIENTED_EDGE ( 'NONE', *, *, #381, .F. ) ;
#183 = ORIENTED_EDGE ( 'NONE', *, *, #377, .T. ) ;
#184 = ORIENTED_EDGE ( 'NONE', *, *, #382, .F. ) ;
#185 = ORIENTED_EDGE ( 'NONE', *, *, #383, .T. ) ;
#186 = ORIENTED_EDGE ( 'NONE', *, *, #384, .F. ) ;
#187 = ORIENTED_EDGE ( 'NONE', *, *, #385, .F. ) ;
#188 = ORIENTED_EDGE ( 'NONE', *, *, #381, .T. ) ;
#189 = ORIENTED_EDGE ( 'NONE', *, *, #387, .F. ) ;
#190 = ORIENTED_EDGE ( 'NONE', *, *, #390, .T. ) ;
#191 = ORIENTED_EDGE ( 'NONE', *, *, #372, .T. ) ;
#192 = ORIENTED_EDGE ( 'NONE', *, *, #389, .T. ) ;
#193 = ORIENTED_EDGE ( 'NONE', *, *, #375, .F. ) ;
#194 = ORIENTED_EDGE ( 'NONE', *, *, #384, .T. ) ;
#195 = ORIENTED_EDGE ( 'NONE', *, *, #378, .T. ) ;
#196 = ORIENTED_EDGE ( 'NONE', *, *, #371, .F. ) ;
#197 = ORIENTED_EDGE ( 'NONE', *, *, #382, .T. ) ;
#198 = ORIENTED_EDGE ( 'NONE', *, *, #370, .T. ) ;
#199 = ORIENTED_EDGE ( 'NONE', *, *, #392, .F. ) ;
#200 = CIRCLE ( 'NONE', #352, 0.04000000000000000100 ) ;
#201 = APPROVAL_DATE_TIME ( #202, #332 ) ;
#202 = DATE_AND_TIME ( #203, #204 ) ;
#203 = CALENDAR_DATE ( 2014, 13, 6 ) ;
#204 = LOCAL_TIME ( 15, 53, 33.00000000000000000, #205 ) ;
#205 = COORDINATED_UNIVERSAL_TIME_OFFSET ( 5, 0, .BEHIND. ) ;
#206 = APPROVAL_PERSON_ORGANIZATION ( #207, #332, #247 ) ;
#207 = PERSON_AND_ORGANIZATION ( #398, #235 ) ;
#208 = DATE_AND_TIME ( #209, #210 ) ;
#209 = CALENDAR_DATE ( 2014, 13, 6 ) ;
#210 = LOCAL_TIME ( 15, 53, 33.00000000000000000, #211 ) ;
#211 = COORDINATED_UNIVERSAL_TIME_OFFSET ( 5, 0, .BEHIND. ) ;
#212 = PERSON_AND_ORGANIZATION ( #398, #235 ) ;
#213 = PERSON_AND_ORGANIZATION ( #398, #235 ) ;
#214 = PERSON_AND_ORGANIZATION ( #398, #235 ) ;
#215 = APPROVAL_DATE_TIME ( #216, #339 ) ;
#216 = DATE_AND_TIME ( #217, #218 ) ;
#217 = CALENDAR_DATE ( 2014, 13, 6 ) ;
#218 = LOCAL_TIME ( 15, 53, 33.00000000000000000, #219 ) ;
#219 = COORDINATED_UNIVERSAL_TIME_OFFSET ( 5, 0, .BEHIND. ) ;
#220 = APPROVAL_PERSON_ORGANIZATION ( #221, #339, #255 ) ;
#221 = PERSON_AND_ORGANIZATION ( #398, #235 ) ;
#222 = DATE_AND_TIME ( #223, #224 ) ;
#223 = CALENDAR_DATE ( 2014, 13, 6 ) ;
#224 = LOCAL_TIME ( 15, 53, 33.00000000000000000, #225 ) ;
#225 = COORDINATED_UNIVERSAL_TIME_OFFSET ( 5, 0, .BEHIND. ) ;
#226 = PERSON_AND_ORGANIZATION ( #398, #235 ) ;
#227 = APPROVAL_DATE_TIME ( #228, #344 ) ;
#228 = DATE_AND_TIME ( #229, #230 ) ;
#229 = CALENDAR_DATE ( 2014, 13, 6 ) ;
#230 = LOCAL_TIME ( 15, 53, 33.00000000000000000, #231 ) ;
#231 = COORDINATED_UNIVERSAL_TIME_OFFSET ( 5, 0, .BEHIND. ) ;
#232 = APPROVAL_PERSON_ORGANIZATION ( #233, #344, #260 ) ;
#233 = PERSON_AND_ORGANIZATION ( #398, #235 ) ;
#234 = PERSON_AND_ORGANIZATION ( #398, #235 ) ;
#235 = ORGANIZATION ( 'UNSPECIFIED', 'UNSPECIFIED', '' ) ;
#236 = SHAPE_DEFINITION_REPRESENTATION ( #399, #394 ) ;
#237 = CIRCLE ( 'NONE', #353, 0.03999999999999998000 ) ;
#238 = LENGTH_MEASURE_WITH_UNIT ( LENGTH_MEASURE( 0.02539999999999999900 ), #257 );
#239 = CIRCLE ( 'NONE', #349, 0.03999999999999998000 ) ;
#240 = CIRCLE ( 'NONE', #350, 0.03999999999999998000 ) ;
#241 = CIRCLE ( 'NONE', #351, 0.04000000000000000100 ) ;
#242 = APPLICATION_CONTEXT ( 'configuration controlled 3d designs of mechanical parts and assemblies' ) ;
#243 = APPLICATION_PROTOCOL_DEFINITION ( 'international standard', 'config_control_design', 1994, #242 ) ;
#244 = CARTESIAN_POINT ( 'NONE',  ( -0.9650000000000005200, 0.0000000000000000000, 0.3900000000000002400 ) ) ;
#245 =( NAMED_UNIT ( * ) SI_UNIT ( $, .STERADIAN. ) SOLID_ANGLE_UNIT ( ) );
#246 =( NAMED_UNIT ( * ) PLANE_ANGLE_UNIT ( ) SI_UNIT ( $, .RADIAN. ) );
#247 = APPROVAL_ROLE ( '' ) ;
#248 = APPROVAL_STATUS ( 'not_yet_approved' ) ;
#249 =( CONVERSION_BASED_UNIT ( 'INCH', #238 ) LENGTH_UNIT ( ) NAMED_UNIT ( #326 ) );
#250 = DATE_TIME_ROLE ( 'classification_date' ) ;
#251 = PERSON_AND_ORGANIZATION_ROLE ( 'classification_officer' ) ;
#252 = SECURITY_CLASSIFICATION_LEVEL ( 'unclassified' ) ;
#253 = PERSON_AND_ORGANIZATION_ROLE ( 'design_supplier' ) ;
#254 = PERSON_AND_ORGANIZATION_ROLE ( 'creator' ) ;
#255 = APPROVAL_ROLE ( '' ) ;
#256 = APPROVAL_STATUS ( 'not_yet_approved' ) ;
#257 =( LENGTH_UNIT ( ) NAMED_UNIT ( * ) SI_UNIT ( $, .METRE. ) );
#258 = DATE_TIME_ROLE ( 'creation_date' ) ;
#259 = PERSON_AND_ORGANIZATION_ROLE ( 'creator' ) ;
#260 = APPROVAL_ROLE ( '' ) ;
#261 = APPROVAL_STATUS ( 'not_yet_approved' ) ;
#262 = DIRECTION ( 'NONE',  ( 0.0000000000000000000, 0.0000000000000000000, -1.000000000000000000 ) ) ;
#263 = APPLICATION_PROTOCOL_DEFINITION ( 'international standard', 'config_control_design', 1994, #264 ) ;
#264 = APPLICATION_CONTEXT ( 'configuration controlled 3d designs of mechanical parts and assemblies' ) ;
#265 = DIRECTION ( 'NONE',  ( 0.0000000000000000000, -1.000000000000000000, 0.0000000000000000000 ) ) ;
#266 = CARTESIAN_POINT ( 'NONE',  ( 0.0000000000000000000, 0.2000000000000000100, -0.1749999999999999900 ) ) ;
#267 = CARTESIAN_POINT ( 'NONE',  ( 0.0000000000000000000, 0.0000000000000000000, 0.0000000000000000000 ) ) ;
#268 = DIRECTION ( 'NONE',  ( 0.0000000000000000000, 0.0000000000000000000, -1.000000000000000000 ) ) ;
#269 = DIRECTION ( 'NONE',  ( 0.0000000000000000000, -1.000000000000000000, 0.0000000000000000000 ) ) ;
#270 = CARTESIAN_POINT ( 'NONE',  ( 0.0000000000000000000, 0.2000000000000000100, -0.1749999999999999900 ) ) ;
#271 = DIRECTION ( 'NONE',  ( 0.0000000000000000000, 0.0000000000000000000, -1.000000000000000000 ) ) ;
#272 = DIRECTION ( 'NONE',  ( 0.0000000000000000000, -1.000000000000000000, 0.0000000000000000000 ) ) ;
#273 = CARTESIAN_POINT ( 'NONE',  ( 0.0000000000000000000, 0.2000000000000000100, 0.1749999999999999900 ) ) ;
#274 = DIRECTION ( 'NONE',  ( 0.0000000000000000000, 0.0000000000000000000, -1.000000000000000000 ) ) ;
#275 = DIRECTION ( 'NONE',  ( 0.0000000000000000000, -1.000000000000000000, 0.0000000000000000000 ) ) ;
#276 = CARTESIAN_POINT ( 'NONE',  ( 0.0000000000000000000, 0.0000000000000000000, 0.1749999999999999900 ) ) ;
#277 = DIRECTION ( 'NONE',  ( 0.0000000000000000000, 0.0000000000000000000, 1.000000000000000000 ) ) ;
#278 = DIRECTION ( 'NONE',  ( -0.0000000000000000000, -0.0000000000000000000, 1.000000000000000000 ) ) ;
#279 = DIRECTION ( 'NONE',  ( 0.0000000000000000000, 0.0000000000000000000, -1.000000000000000000 ) ) ;
#280 = DIRECTION ( 'NONE',  ( 0.0000000000000000000, -1.000000000000000000, 0.0000000000000000000 ) ) ;
#281 = CARTESIAN_POINT ( 'NONE',  ( 0.0000000000000000000, 0.0000000000000000000, -0.1749999999999999900 ) ) ;
#282 = CARTESIAN_POINT ( 'NONE',  ( -0.9650000000000005200, 0.0000000000000000000, 0.3900000000000002400 ) ) ;
#283 = DIRECTION ( 'NONE',  ( 1.000000000000000000, 0.0000000000000000000, 0.0000000000000000000 ) ) ;
#284 = PERSON_AND_ORGANIZATION_ROLE ( 'design_owner' ) ;
#285 = CARTESIAN_POINT ( 'NONE',  ( -0.9650000000000005200, 0.3300000000000000200, 0.3900000000000002400 ) ) ;
#286 = DIRECTION ( 'NONE',  ( 1.000000000000000000, 0.0000000000000000000, 0.0000000000000000000 ) ) ;
#287 = DIRECTION ( 'NONE',  ( -0.0000000000000000000, -0.0000000000000000000, 1.000000000000000000 ) ) ;
#288 = DIRECTION ( 'NONE',  ( -0.0000000000000000000, -1.000000000000000000, -0.0000000000000000000 ) ) ;
#289 = DIRECTION ( 'NONE',  ( 1.000000000000000000, 0.0000000000000000000, 0.0000000000000000000 ) ) ;
#290 = CARTESIAN_POINT ( 'NONE',  ( -0.9650000000000005200, 0.3300000000000000200, 0.3900000000000002400 ) ) ;
#291 = MECHANICAL_CONTEXT ( 'NONE', #242, 'mechanical' ) ;
#292 = ORIENTED_EDGE ( 'NONE', *, *, #372, .F. ) ;
#293 = ORIENTED_EDGE ( 'NONE', *, *, #385, .T. ) ;
#294 = ORIENTED_EDGE ( 'NONE', *, *, #391, .F. ) ;
#295 = ORIENTED_EDGE ( 'NONE', *, *, #369, .F. ) ;
#296 = CLOSED_SHELL ( 'NONE', ( #320, #318, #325, #321, #322, #329, #317, #328, #327, #324, #323, #319 ) ) ;
#297 = ORIENTED_EDGE ( 'NONE', *, *, #371, .T. ) ;
#298 = ORIENTED_EDGE ( 'NONE', *, *, #388, .T. ) ;
#299 = ORIENTED_EDGE ( 'NONE', *, *, #391, .T. ) ;
#300 = ORIENTED_EDGE ( 'NONE', *, *, #392, .T. ) ;
#301 = EDGE_LOOP ( 'NONE', ( #167, #168, #164, #165 ) ) ;
#302 = EDGE_LOOP ( 'NONE', ( #199, #314, #198, #196 ) ) ;
#303 = EDGE_LOOP ( 'NONE', ( #195, #197, #293, #172 ) ) ;
#304 = EDGE_LOOP ( 'NONE', ( #175, #176, #189, #194 ) ) ;
#305 = EDGE_LOOP ( 'NONE', ( #177, #178, #181, #179 ) ) ;
#306 = EDGE_LOOP ( 'NONE', ( #292, #166, #174, #193 ) ) ;
#307 = EDGE_LOOP ( 'NONE', ( #163, #161, #162, #192 ) ) ;
#308 = EDGE_LOOP ( 'NONE', ( #190, #191 ) ) ;
#309 = EDGE_LOOP ( 'NONE', ( #169, #170 ) ) ;
#310 = EDGE_LOOP ( 'NONE', ( #173, #171 ) ) ;
#311 = EDGE_LOOP ( 'NONE', ( #185, #186, #187, #188 ) ) ;
#312 = EDGE_LOOP ( 'NONE', ( #180, #182, #184, #183 ) ) ;
#313 = EDGE_LOOP ( 'NONE', ( #299, #300 ) ) ;
#314 = ORIENTED_EDGE ( 'NONE', *, *, #369, .T. ) ;
#315 = VERTEX_POINT ( 'NONE', #82 ) ;
#316 = EDGE_LOOP ( 'NONE', ( #295, #294, #297, #298 ) ) ;
#317 = ADVANCED_FACE ( 'NONE', ( #143 ), #83, .F. ) ;
#318 = ADVANCED_FACE ( 'NONE', ( #144 ), #139, .F. ) ;
#319 = ADVANCED_FACE ( 'NONE', ( #137 ), #76, .T. ) ;
#320 = ADVANCED_FACE ( 'NONE', ( #142 ), #136, .F. ) ;
#321 = ADVANCED_FACE ( 'NONE', ( #140 ), #69, .F. ) ;
#322 = ADVANCED_FACE ( 'NONE', ( #138 ), #64, .F. ) ;
#323 = ADVANCED_FACE ( 'NONE', ( #145 ), #132, .F. ) ;
#324 = ADVANCED_FACE ( 'NONE', ( #134 ), #58, .T. ) ;
#325 = ADVANCED_FACE ( 'NONE', ( #141 ), #53, .F. ) ;
#326 = DIMENSIONAL_EXPONENTS ( 1.000000000000000000, 0.0000000000000000000, 0.0000000000000000000, 0.0000000000000000000, 0.0000000000000000000, 0.0000000000000000000, 0.0000000000000000000 ) ;
#327 = ADVANCED_FACE ( 'NONE', ( #135 ), #128, .F. ) ;
#328 = ADVANCED_FACE ( 'NONE', ( #130, #127, #133 ), #46, .T. ) ;
#329 = ADVANCED_FACE ( 'NONE', ( #131 ), #43, .F. ) ;
#330 = CC_DESIGN_SECURITY_CLASSIFICATION ( #335, ( #340 ) ) ;
#331 = CC_DESIGN_APPROVAL ( #332, ( #335 ) ) ;
#332 = APPROVAL ( #248, 'UNSPECIFIED' ) ;
#333 = CC_DESIGN_DATE_AND_TIME_ASSIGNMENT ( #208, #250, ( #335 ) ) ;
#334 = CC_DESIGN_PERSON_AND_ORGANIZATION_ASSIGNMENT ( #212, #251, ( #335 ) ) ;
#335 = SECURITY_CLASSIFICATION ( '', '', #252 ) ;
#336 = CC_DESIGN_PERSON_AND_ORGANIZATION_ASSIGNMENT ( #213, #253, ( #340 ) ) ;
#337 = CC_DESIGN_PERSON_AND_ORGANIZATION_ASSIGNMENT ( #214, #254, ( #340 ) ) ;
#338 = CC_DESIGN_APPROVAL ( #339, ( #340 ) ) ;
#339 = APPROVAL ( #256, 'UNSPECIFIED' ) ;
#340 = PRODUCT_DEFINITION_FORMATION_WITH_SPECIFIED_SOURCE ( 'ANY', '', #397, .NOT_KNOWN. ) ;
#341 = CC_DESIGN_DATE_AND_TIME_ASSIGNMENT ( #222, #258, ( #345 ) ) ;
#342 = CC_DESIGN_PERSON_AND_ORGANIZATION_ASSIGNMENT ( #226, #259, ( #345 ) ) ;
#343 = CC_DESIGN_APPROVAL ( #344, ( #345 ) ) ;
#344 = APPROVAL ( #261, 'UNSPECIFIED' ) ;
#345 = PRODUCT_DEFINITION ( 'UNKNOWN', '', #340, #400 ) ;
#346 = CC_DESIGN_PERSON_AND_ORGANIZATION_ASSIGNMENT ( #234, #284, ( #397 ) ) ;
#347 = AXIS2_PLACEMENT_3D ( 'NONE', #267, #277, #289 ) ;
#348 =( GEOMETRIC_REPRESENTATION_CONTEXT ( 3 ) GLOBAL_UNCERTAINTY_ASSIGNED_CONTEXT ( ( #396 ) ) GLOBAL_UNIT_ASSIGNED_CONTEXT ( ( #249, #246, #245 ) ) REPRESENTATION_CONTEXT ( 'NONE', 'WORKASPACE' ) );
#349 = AXIS2_PLACEMENT_3D ( 'NONE', #266, #265, #262 ) ;
#350 = AXIS2_PLACEMENT_3D ( 'NONE', #270, #269, #268 ) ;
#351 = AXIS2_PLACEMENT_3D ( 'NONE', #273, #272, #271 ) ;
#352 = AXIS2_PLACEMENT_3D ( 'NONE', #276, #275, #274 ) ;
#353 = AXIS2_PLACEMENT_3D ( 'NONE', #281, #280, #279 ) ;
#354 = AXIS2_PLACEMENT_3D ( 'NONE', #21, #20, #19 ) ;
#355 = AXIS2_PLACEMENT_3D ( 'NONE', #30, #29, #28 ) ;
#356 = AXIS2_PLACEMENT_3D ( 'NONE', #45, #42, #41 ) ;
#357 = AXIS2_PLACEMENT_3D ( 'NONE', #36, #35, #34 ) ;
#358 = AXIS2_PLACEMENT_3D ( 'NONE', #47, #52, #44 ) ;
#359 = AXIS2_PLACEMENT_3D ( 'NONE', #48, #49, #56 ) ;
#360 = AXIS2_PLACEMENT_3D ( 'NONE', #57, #51, #50 ) ;
#361 = AXIS2_PLACEMENT_3D ( 'NONE', #63, #55, #54 ) ;
#362 = AXIS2_PLACEMENT_3D ( 'NONE', #59, #60, #67 ) ;
#363 = AXIS2_PLACEMENT_3D ( 'NONE', #68, #62, #61 ) ;
#364 = AXIS2_PLACEMENT_3D ( 'NONE', #74, #66, #65 ) ;
#365 = AXIS2_PLACEMENT_3D ( 'NONE', #70, #71, #75 ) ;
#366 = AXIS2_PLACEMENT_3D ( 'NONE', #85, #73, #72 ) ;
#367 = AXIS2_PLACEMENT_3D ( 'NONE', #77, #78, #81 ) ;
#368 = AXIS2_PLACEMENT_3D ( 'NONE', #86, #80, #79 ) ;
#369 = EDGE_CURVE ( 'NONE', #315, #148, #124, .T. ) ;
#370 = EDGE_CURVE ( 'NONE', #148, #146, #129, .T. ) ;
#371 = EDGE_CURVE ( 'NONE', #152, #146, #123, .T. ) ;
#372 = EDGE_CURVE ( 'NONE', #159, #158, #126, .T. ) ;
#373 = EDGE_CURVE ( 'NONE', #159, #153, #122, .T. ) ;
#374 = EDGE_CURVE ( 'NONE', #153, #151, #120, .T. ) ;
#375 = EDGE_CURVE ( 'NONE', #158, #151, #117, .T. ) ;
#376 = EDGE_CURVE ( 'NONE', #154, #157, #119, .T. ) ;
#377 = EDGE_CURVE ( 'NONE', #160, #157, #116, .T. ) ;
#378 = EDGE_CURVE ( 'NONE', #150, #160, #114, .T. ) ;
#379 = EDGE_CURVE ( 'NONE', #150, #154, #112, .T. ) ;
#380 = EDGE_CURVE ( 'NONE', #157, #147, #108, .T. ) ;
#381 = EDGE_CURVE ( 'NONE', #156, #147, #106, .T. ) ;
#382 = EDGE_CURVE ( 'NONE', #160, #156, #110, .T. ) ;
#383 = EDGE_CURVE ( 'NONE', #147, #149, #102, .T. ) ;
#384 = EDGE_CURVE ( 'NONE', #155, #149, #100, .T. ) ;
#385 = EDGE_CURVE ( 'NONE', #156, #155, #104, .T. ) ;
#386 = EDGE_CURVE ( 'NONE', #149, #154, #97, .T. ) ;
#387 = EDGE_CURVE ( 'NONE', #155, #150, #95, .T. ) ;
#388 = EDGE_CURVE ( 'NONE', #146, #148, #237, .T. ) ;
#389 = EDGE_CURVE ( 'NONE', #151, #153, #200, .T. ) ;
#390 = EDGE_CURVE ( 'NONE', #158, #159, #241, .T. ) ;
#391 = EDGE_CURVE ( 'NONE', #152, #315, #240, .T. ) ;
#392 = EDGE_CURVE ( 'NONE', #315, #152, #239, .T. ) ;
#393 = PRODUCT_RELATED_PRODUCT_CATEGORY ( 'detail', '', ( #397 ) ) ;
#394 = ADVANCED_BREP_SHAPE_REPRESENTATION ( 'BE2AAAAW', ( #395, #347 ), #348 ) ;
#395 = MANIFOLD_SOLID_BREP ( 'Cut-Extrude1', #296 ) ;
#396 = UNCERTAINTY_MEASURE_WITH_UNIT (LENGTH_MEASURE( 1.000000000000000100E-005 ), #249, 'distance_accuracy_value', 'NONE');
#397 = PRODUCT ( 'BE2AAAAW', 'BE2AAAAW', '', ( #291 ) ) ;
#398 = PERSON ( 'UNSPECIFIED', 'UNSPECIFIED', 'UNSPECIFIED', ('UNSPECIFIED'), ('UNSPECIFIED'), ('UNSPECIFIED') ) ;
#399 = PRODUCT_DEFINITION_SHAPE ( 'NONE', 'NONE',  #345 ) ;
#400 = DESIGN_CONTEXT ( 'detailed design', #264, 'design' ) ;
ENDSEC;
END-ISO-10303-21;
