ISO-10303-21;
HEADER;
FILE_DESCRIPTION (( 'STEP AP203' ),
    '1' );
FILE_NAME ('BEAAAAPC.STEP',
    '2014-06-13T19:54:22',
    ( 'Intern' ),
    ( '' ),
    'SwSTEP 2.0',
    'SolidWorks 2012',
    '' );
FILE_SCHEMA (( 'CONFIG_CONTROL_DESIGN' ));
ENDSEC;

DATA;
#1 = CALENDAR_DATE ( 2014, 13, 6 ) ;
#2 = LOCAL_TIME ( 15, 54, 22.00000000000000000, #4 ) ;
#3 = APPROVAL_DATE_TIME ( #8, #254 ) ;
#4 = COORDINATED_UNIVERSAL_TIME_OFFSET ( 5, 0, .BEHIND. ) ;
#5 = APPROVAL_PERSON_ORGANIZATION ( #6, #254, #247 ) ;
#6 = PERSON_AND_ORGANIZATION ( #357, #21 ) ;
#7 = DATE_AND_TIME ( #9, #10 ) ;
#8 = DATE_AND_TIME ( #1, #2 ) ;
#9 = CALENDAR_DATE ( 2014, 13, 6 ) ;
#10 = LOCAL_TIME ( 15, 54, 22.00000000000000000, #11 ) ;
#11 = COORDINATED_UNIVERSAL_TIME_OFFSET ( 5, 0, .BEHIND. ) ;
#12 = PERSON_AND_ORGANIZATION ( #357, #21 ) ;
#13 = APPROVAL_DATE_TIME ( #14, #259 ) ;
#14 = DATE_AND_TIME ( #15, #16 ) ;
#15 = CALENDAR_DATE ( 2014, 13, 6 ) ;
#16 = LOCAL_TIME ( 15, 54, 22.00000000000000000, #17 ) ;
#17 = COORDINATED_UNIVERSAL_TIME_OFFSET ( 5, 0, .BEHIND. ) ;
#18 = APPROVAL_PERSON_ORGANIZATION ( #19, #259, #243 ) ;
#19 = PERSON_AND_ORGANIZATION ( #357, #21 ) ;
#20 = PERSON_AND_ORGANIZATION ( #357, #21 ) ;
#21 = ORGANIZATION ( 'UNSPECIFIED', 'UNSPECIFIED', '' ) ;
#22 = SHAPE_DEFINITION_REPRESENTATION ( #365, #349 ) ;
#23 = LENGTH_MEASURE_WITH_UNIT ( LENGTH_MEASURE( 0.02539999999999999900 ), #386 );
#24 = VECTOR ( 'NONE', #384, 39.37007874015748100 ) ;
#25 = VECTOR ( 'NONE', #382, 39.37007874015748100 ) ;
#26 = LINE ( 'NONE', #383, #24 ) ;
#27 = LINE ( 'NONE', #364, #25 ) ;
#28 = VECTOR ( 'NONE', #390, 39.37007874015748100 ) ;
#29 = CIRCLE ( 'NONE', #264, 0.02000000000000007700 ) ;
#30 = VECTOR ( 'NONE', #388, 39.37007874015748100 ) ;
#31 = LINE ( 'NONE', #389, #28 ) ;
#32 = VECTOR ( 'NONE', #232, 39.37007874015748100 ) ;
#33 = LINE ( 'NONE', #233, #30 ) ;
#34 = VECTOR ( 'NONE', #359, 39.37007874015748100 ) ;
#35 = LINE ( 'NONE', #231, #32 ) ;
#36 = LINE ( 'NONE', #362, #34 ) ;
#37 = VECTOR ( 'NONE', #363, 39.37007874015748100 ) ;
#38 = VECTOR ( 'NONE', #360, 39.37007874015748100 ) ;
#39 = LINE ( 'NONE', #361, #37 ) ;
#40 = VECTOR ( 'NONE', #372, 39.37007874015748100 ) ;
#41 = CIRCLE ( 'NONE', #265, 0.01999999999999993100 ) ;
#42 = VECTOR ( 'NONE', #375, 39.37007874015748100 ) ;
#43 = LINE ( 'NONE', #367, #38 ) ;
#44 = LINE ( 'NONE', #379, #42 ) ;
#45 = VECTOR ( 'NONE', #320, 39.37007874015748100 ) ;
#46 = LINE ( 'NONE', #368, #40 ) ;
#47 = LINE ( 'NONE', #374, #45 ) ;
#48 = VECTOR ( 'NONE', #319, 39.37007874015748100 ) ;
#49 = CIRCLE ( 'NONE', #266, 0.02000000000000007700 ) ;
#50 = CIRCLE ( 'NONE', #274, 0.02000000000000007700 ) ;
#51 = VECTOR ( 'NONE', #222, 39.37007874015748100 ) ;
#52 = LINE ( 'NONE', #321, #48 ) ;
#53 = LINE ( 'NONE', #226, #51 ) ;
#54 = VECTOR ( 'NONE', #393, 39.37007874015748100 ) ;
#55 = CIRCLE ( 'NONE', #275, 0.02000000000000007700 ) ;
#56 = LINE ( 'NONE', #398, #54 ) ;
#57 = VECTOR ( 'NONE', #399, 39.37007874015748100 ) ;
#58 = CIRCLE ( 'NONE', #276, 0.01999999999999993100 ) ;
#59 = CIRCLE ( 'NONE', #278, 0.01999999999999993100 ) ;
#60 = CIRCLE ( 'NONE', #280, 0.01999999999999993100 ) ;
#61 = LINE ( 'NONE', #394, #57 ) ;
#62 = VECTOR ( 'NONE', #342, 39.37007874015748100 ) ;
#63 = FACE_OUTER_BOUND ( 'NONE', #84, .T. ) ;
#64 = FACE_OUTER_BOUND ( 'NONE', #86, .T. ) ;
#65 = LINE ( 'NONE', #356, #62 ) ;
#66 = FACE_OUTER_BOUND ( 'NONE', #85, .T. ) ;
#67 = FACE_OUTER_BOUND ( 'NONE', #182, .T. ) ;
#68 = CYLINDRICAL_SURFACE ( 'NONE', #288, 0.02000000000000007700 ) ;
#69 = FACE_OUTER_BOUND ( 'NONE', #190, .T. ) ;
#70 = CYLINDRICAL_SURFACE ( 'NONE', #290, 0.01999999999999993100 ) ;
#71 = FACE_BOUND ( 'NONE', #82, .T. ) ;
#72 = CYLINDRICAL_SURFACE ( 'NONE', #291, 0.01999999999999993100 ) ;
#73 = FACE_BOUND ( 'NONE', #81, .T. ) ;
#74 = FACE_OUTER_BOUND ( 'NONE', #88, .T. ) ;
#75 = FACE_OUTER_BOUND ( 'NONE', #185, .T. ) ;
#76 = FACE_OUTER_BOUND ( 'NONE', #83, .T. ) ;
#77 = FACE_OUTER_BOUND ( 'NONE', #199, .T. ) ;
#78 = FACE_OUTER_BOUND ( 'NONE', #186, .T. ) ;
#79 = CYLINDRICAL_SURFACE ( 'NONE', #293, 0.02000000000000007700 ) ;
#80 = FACE_OUTER_BOUND ( 'NONE', #87, .T. ) ;
#81 = EDGE_LOOP ( 'NONE', ( #145, #147 ) ) ;
#82 = EDGE_LOOP ( 'NONE', ( #205, #179 ) ) ;
#83 = EDGE_LOOP ( 'NONE', ( #193, #209, #188, #204 ) ) ;
#84 = EDGE_LOOP ( 'NONE', ( #160, #162, #164, #163 ) ) ;
#85 = EDGE_LOOP ( 'NONE', ( #175, #149, #146, #148 ) ) ;
#86 = EDGE_LOOP ( 'NONE', ( #152, #154, #153, #155 ) ) ;
#87 = EDGE_LOOP ( 'NONE', ( #198, #189, #195, #192 ) ) ;
#88 = EDGE_LOOP ( 'NONE', ( #158, #157, #159, #161 ) ) ;
#89 = VERTEX_POINT ( 'NONE', #144 ) ;
#90 = VERTEX_POINT ( 'NONE', #108 ) ;
#91 = VERTEX_POINT ( 'NONE', #98 ) ;
#92 = VERTEX_POINT ( 'NONE', #99 ) ;
#93 = VERTEX_POINT ( 'NONE', #97 ) ;
#94 = VERTEX_POINT ( 'NONE', #210 ) ;
#95 = VERTEX_POINT ( 'NONE', #96 ) ;
#96 = CARTESIAN_POINT ( 'NONE',  ( 0.9049999999999999200, 0.0000000000000000000, 0.02000000000000007700 ) ) ;
#97 = CARTESIAN_POINT ( 'NONE',  ( -0.9050000000000000300, 0.0000000000000000000, -0.01999999999999993100 ) ) ;
#98 = CARTESIAN_POINT ( 'NONE',  ( 0.9649999999999998600, 0.3300000000000000200, 0.2050000000000000400 ) ) ;
#99 = CARTESIAN_POINT ( 'NONE',  ( 0.9649999999999998600, 0.0000000000000000000, -0.2049999999999999600 ) ) ;
#100 = DATE_AND_TIME ( #120, #106 ) ;
#101 = COORDINATED_UNIVERSAL_TIME_OFFSET ( 5, 0, .BEHIND. ) ;
#102 = PERSON_AND_ORGANIZATION ( #357, #21 ) ;
#103 = PERSON_AND_ORGANIZATION ( #357, #21 ) ;
#104 = CALENDAR_DATE ( 2014, 13, 6 ) ;
#105 = COORDINATED_UNIVERSAL_TIME_OFFSET ( 5, 0, .BEHIND. ) ;
#106 = LOCAL_TIME ( 15, 54, 22.00000000000000000, #105 ) ;
#107 = PERSON_AND_ORGANIZATION ( #357, #21 ) ;
#108 = CARTESIAN_POINT ( 'NONE',  ( 0.9049999999999999200, -0.1200000000000000000, 0.02000000000000007700 ) ) ;
#109 = PLANE ( 'NONE',  #294 ) ;
#110 = CARTESIAN_POINT ( 'NONE',  ( -0.9650000000000000800, 0.3300000000000000200, -0.2049999999999999600 ) ) ;
#111 = CARTESIAN_POINT ( 'NONE',  ( -0.9650000000000000800, 0.3300000000000000200, 0.2050000000000000400 ) ) ;
#112 = DIRECTION ( 'NONE',  ( 1.000000000000000000, -0.0000000000000000000, 0.0000000000000000000 ) ) ;
#113 = DIRECTION ( 'NONE',  ( 0.0000000000000000000, 0.0000000000000000000, -1.000000000000000000 ) ) ;
#114 = DIRECTION ( 'NONE',  ( -0.0000000000000000000, 1.000000000000000000, -0.0000000000000000000 ) ) ;
#115 = CARTESIAN_POINT ( 'NONE',  ( 0.9049999999999999200, -0.1200000000000000000, 0.0000000000000000000 ) ) ;
#116 = APPROVAL_PERSON_ORGANIZATION ( #118, #271, #221 ) ;
#117 = APPROVAL_DATE_TIME ( #100, #271 ) ;
#118 = PERSON_AND_ORGANIZATION ( #357, #21 ) ;
#119 = DATE_AND_TIME ( #104, #121 ) ;
#120 = CALENDAR_DATE ( 2014, 13, 6 ) ;
#121 = LOCAL_TIME ( 15, 54, 22.00000000000000000, #101 ) ;
#122 = DIRECTION ( 'NONE',  ( 0.0000000000000000000, 0.0000000000000000000, 1.000000000000000000 ) ) ;
#123 = DIRECTION ( 'NONE',  ( 1.000000000000000000, 0.0000000000000000000, -0.0000000000000000000 ) ) ;
#124 = PLANE ( 'NONE',  #279 ) ;
#125 = CARTESIAN_POINT ( 'NONE',  ( -0.9650000000000000800, 0.0000000000000000000, -0.2049999999999999600 ) ) ;
#126 = CARTESIAN_POINT ( 'NONE',  ( -0.9650000000000000800, 0.3300000000000000200, 0.2050000000000000400 ) ) ;
#127 = DIRECTION ( 'NONE',  ( 0.0000000000000000000, 0.0000000000000000000, -1.000000000000000000 ) ) ;
#128 = DIRECTION ( 'NONE',  ( -1.000000000000000000, 0.0000000000000000000, -0.0000000000000000000 ) ) ;
#129 = CARTESIAN_POINT ( 'NONE',  ( -0.9650000000000000800, 0.0000000000000000000, 0.2050000000000000400 ) ) ;
#130 = CARTESIAN_POINT ( 'NONE',  ( -0.9050000000000000300, -0.1200000000000000000, 0.01999999999999993100 ) ) ;
#131 = ADVANCED_FACE ( 'NONE', ( #74 ), #109, .F. ) ;
#132 = ADVANCED_FACE ( 'NONE', ( #183 ), #79, .T. ) ;
#133 = ADVANCED_FACE ( 'NONE', ( #77 ), #324, .T. ) ;
#134 = ADVANCED_FACE ( 'NONE', ( #75 ), #72, .T. ) ;
#135 = DIMENSIONAL_EXPONENTS ( 1.000000000000000000, 0.0000000000000000000, 0.0000000000000000000, 0.0000000000000000000, 0.0000000000000000000, 0.0000000000000000000, 0.0000000000000000000 ) ;
#136 = ADVANCED_FACE ( 'NONE', ( #80 ), #70, .T. ) ;
#137 = ADVANCED_FACE ( 'NONE', ( #76 ), #68, .T. ) ;
#138 = ADVANCED_FACE ( 'NONE', ( #78 ), #338, .F. ) ;
#139 = ADVANCED_FACE ( 'NONE', ( #71, #66, #73 ), #343, .T. ) ;
#140 = ADVANCED_FACE ( 'NONE', ( #67 ), #347, .F. ) ;
#141 = ADVANCED_FACE ( 'NONE', ( #69 ), #213, .T. ) ;
#142 = ADVANCED_FACE ( 'NONE', ( #64 ), #218, .F. ) ;
#143 = ADVANCED_FACE ( 'NONE', ( #63 ), #124, .F. ) ;
#144 = CARTESIAN_POINT ( 'NONE',  ( -0.9650000000000000800, 0.3300000000000000200, -0.2049999999999999600 ) ) ;
#145 = ORIENTED_EDGE ( 'NONE', *, *, #308, .F. ) ;
#146 = ORIENTED_EDGE ( 'NONE', *, *, #306, .F. ) ;
#147 = ORIENTED_EDGE ( 'NONE', *, *, #297, .F. ) ;
#148 = ORIENTED_EDGE ( 'NONE', *, *, #307, .F. ) ;
#149 = ORIENTED_EDGE ( 'NONE', *, *, #305, .F. ) ;
#150 = ORIENTED_EDGE ( 'NONE', *, *, #311, .T. ) ;
#151 = ORIENTED_EDGE ( 'NONE', *, *, #302, .T. ) ;
#152 = ORIENTED_EDGE ( 'NONE', *, *, #307, .T. ) ;
#153 = ORIENTED_EDGE ( 'NONE', *, *, #284, .F. ) ;
#154 = ORIENTED_EDGE ( 'NONE', *, *, #289, .F. ) ;
#155 = ORIENTED_EDGE ( 'NONE', *, *, #309, .T. ) ;
#156 = VERTEX_POINT ( 'NONE', #125 ) ;
#157 = ORIENTED_EDGE ( 'NONE', *, *, #312, .F. ) ;
#158 = ORIENTED_EDGE ( 'NONE', *, *, #306, .T. ) ;
#159 = ORIENTED_EDGE ( 'NONE', *, *, #314, .F. ) ;
#160 = ORIENTED_EDGE ( 'NONE', *, *, #305, .T. ) ;
#161 = ORIENTED_EDGE ( 'NONE', *, *, #289, .T. ) ;
#162 = ORIENTED_EDGE ( 'NONE', *, *, #311, .F. ) ;
#163 = ORIENTED_EDGE ( 'NONE', *, *, #312, .T. ) ;
#164 = ORIENTED_EDGE ( 'NONE', *, *, #315, .F. ) ;
#165 = ORIENTED_EDGE ( 'NONE', *, *, #310, .T. ) ;
#166 = ORIENTED_EDGE ( 'NONE', *, *, #308, .T. ) ;
#167 = ORIENTED_EDGE ( 'NONE', *, *, #298, .T. ) ;
#168 = ORIENTED_EDGE ( 'NONE', *, *, #286, .T. ) ;
#169 = ORIENTED_EDGE ( 'NONE', *, *, #314, .T. ) ;
#170 = EDGE_LOOP ( 'NONE', ( #208, #171, #151, #203 ) ) ;
#171 = ORIENTED_EDGE ( 'NONE', *, *, #313, .F. ) ;
#172 = ORIENTED_EDGE ( 'NONE', *, *, #304, .T. ) ;
#173 = VERTEX_POINT ( 'NONE', #351 ) ;
#174 = ORIENTED_EDGE ( 'NONE', *, *, #284, .T. ) ;
#175 = ORIENTED_EDGE ( 'NONE', *, *, #304, .F. ) ;
#176 = ORIENTED_EDGE ( 'NONE', *, *, #315, .T. ) ;
#177 = VERTEX_POINT ( 'NONE', #130 ) ;
#178 = ORIENTED_EDGE ( 'NONE', *, *, #309, .F. ) ;
#179 = ORIENTED_EDGE ( 'NONE', *, *, #301, .F. ) ;
#180 = ORIENTED_EDGE ( 'NONE', *, *, #295, .T. ) ;
#181 = ORIENTED_EDGE ( 'NONE', *, *, #310, .F. ) ;
#182 = EDGE_LOOP ( 'NONE', ( #172, #178, #181, #150 ) ) ;
#183 = FACE_OUTER_BOUND ( 'NONE', #170, .T. ) ;
#184 = ORIENTED_EDGE ( 'NONE', *, *, #286, .F. ) ;
#185 = EDGE_LOOP ( 'NONE', ( #196, #184, #167, #166 ) ) ;
#186 = EDGE_LOOP ( 'NONE', ( #165, #174, #169, #176 ) ) ;
#187 = CLOSED_SHELL ( 'NONE', ( #136, #137, #139, #140, #142, #131, #143, #138, #132, #141, #134, #133 ) ) ;
#188 = ORIENTED_EDGE ( 'NONE', *, *, #301, .T. ) ;
#189 = ORIENTED_EDGE ( 'NONE', *, *, #296, .T. ) ;
#190 = EDGE_LOOP ( 'NONE', ( #197, #201 ) ) ;
#191 = VERTEX_POINT ( 'NONE', #352 ) ;
#192 = ORIENTED_EDGE ( 'NONE', *, *, #298, .F. ) ;
#193 = ORIENTED_EDGE ( 'NONE', *, *, #299, .F. ) ;
#194 = VERTEX_POINT ( 'NONE', #129 ) ;
#195 = ORIENTED_EDGE ( 'NONE', *, *, #297, .T. ) ;
#196 = ORIENTED_EDGE ( 'NONE', *, *, #296, .F. ) ;
#197 = ORIENTED_EDGE ( 'NONE', *, *, #313, .T. ) ;
#198 = ORIENTED_EDGE ( 'NONE', *, *, #295, .F. ) ;
#199 = EDGE_LOOP ( 'NONE', ( #168, #180 ) ) ;
#200 = VERTEX_POINT ( 'NONE', #214 ) ;
#201 = ORIENTED_EDGE ( 'NONE', *, *, #299, .T. ) ;
#202 = VERTEX_POINT ( 'NONE', #353 ) ;
#203 = ORIENTED_EDGE ( 'NONE', *, *, #303, .T. ) ;
#204 = ORIENTED_EDGE ( 'NONE', *, *, #302, .F. ) ;
#205 = ORIENTED_EDGE ( 'NONE', *, *, #303, .F. ) ;
#206 = VERTEX_POINT ( 'NONE', #354 ) ;
#207 = VERTEX_POINT ( 'NONE', #355 ) ;
#208 = ORIENTED_EDGE ( 'NONE', *, *, #300, .F. ) ;
#209 = ORIENTED_EDGE ( 'NONE', *, *, #300, .T. ) ;
#210 = CARTESIAN_POINT ( 'NONE',  ( 0.9649999999999998600, 0.3300000000000000200, -0.2049999999999999600 ) ) ;
#211 = DIRECTION ( 'NONE',  ( -1.000000000000000000, 0.0000000000000000000, 0.0000000000000000000 ) ) ;
#212 = DIRECTION ( 'NONE',  ( 0.0000000000000000000, 0.0000000000000000000, 1.000000000000000000 ) ) ;
#213 = PLANE ( 'NONE',  #282 ) ;
#214 = CARTESIAN_POINT ( 'NONE',  ( -0.9650000000000000800, 0.3300000000000000200, 0.2050000000000000400 ) ) ;
#215 = CARTESIAN_POINT ( 'NONE',  ( 0.9049999999999999200, -0.1200000000000000000, 0.0000000000000000000 ) ) ;
#216 = DIRECTION ( 'NONE',  ( 0.0000000000000000000, -1.000000000000000000, 0.0000000000000000000 ) ) ;
#217 = DIRECTION ( 'NONE',  ( 0.0000000000000000000, -0.0000000000000000000, -1.000000000000000000 ) ) ;
#218 = PLANE ( 'NONE',  #281 ) ;
#219 = DATE_TIME_ROLE ( 'classification_date' ) ;
#220 = APPROVAL_STATUS ( 'not_yet_approved' ) ;
#221 = APPROVAL_ROLE ( '' ) ;
#222 = DIRECTION ( 'NONE',  ( -0.0000000000000000000, 1.000000000000000000, -0.0000000000000000000 ) ) ;
#223 = CARTESIAN_POINT ( 'NONE',  ( -0.9050000000000000300, -0.1200000000000000000, 0.0000000000000000000 ) ) ;
#224 = DIRECTION ( 'NONE',  ( 0.0000000000000000000, -1.000000000000000000, 0.0000000000000000000 ) ) ;
#225 = DIRECTION ( 'NONE',  ( 0.0000000000000000000, 0.0000000000000000000, -1.000000000000000000 ) ) ;
#226 = CARTESIAN_POINT ( 'NONE',  ( -0.9050000000000000300, -0.1200000000000000000, 0.01999999999999993100 ) ) ;
#227 =( NAMED_UNIT ( * ) PLANE_ANGLE_UNIT ( ) SI_UNIT ( $, .RADIAN. ) );
#228 = CARTESIAN_POINT ( 'NONE',  ( -0.9050000000000000300, 0.0000000000000000000, 0.0000000000000000000 ) ) ;
#229 = DIRECTION ( 'NONE',  ( 0.0000000000000000000, -1.000000000000000000, 0.0000000000000000000 ) ) ;
#230 = DIRECTION ( 'NONE',  ( 0.0000000000000000000, 0.0000000000000000000, -1.000000000000000000 ) ) ;
#231 = CARTESIAN_POINT ( 'NONE',  ( 0.9649999999999998600, 0.3300000000000000200, 0.2050000000000000400 ) ) ;
#232 = DIRECTION ( 'NONE',  ( 0.0000000000000000000, 0.0000000000000000000, -1.000000000000000000 ) ) ;
#233 = CARTESIAN_POINT ( 'NONE',  ( 0.9649999999999998600, 0.3300000000000000200, 0.2050000000000000400 ) ) ;
#234 =( NAMED_UNIT ( * ) SI_UNIT ( $, .STERADIAN. ) SOLID_ANGLE_UNIT ( ) );
#235 = APPLICATION_PROTOCOL_DEFINITION ( 'international standard', 'config_control_design', 1994, #236 ) ;
#236 = APPLICATION_CONTEXT ( 'configuration controlled 3d designs of mechanical parts and assemblies' ) ;
#237 = DIRECTION ( 'NONE',  ( 1.000000000000000000, 0.0000000000000000000, 0.0000000000000000000 ) ) ;
#238 = MECHANICAL_CONTEXT ( 'NONE', #236, 'mechanical' ) ;
#239 = PERSON_AND_ORGANIZATION_ROLE ( 'design_owner' ) ;
#240 = APPLICATION_CONTEXT ( 'configuration controlled 3d designs of mechanical parts and assemblies' ) ;
#241 = APPLICATION_PROTOCOL_DEFINITION ( 'international standard', 'config_control_design', 1994, #240 ) ;
#242 = APPROVAL_STATUS ( 'not_yet_approved' ) ;
#243 = APPROVAL_ROLE ( '' ) ;
#244 = PERSON_AND_ORGANIZATION_ROLE ( 'creator' ) ;
#245 = DATE_TIME_ROLE ( 'creation_date' ) ;
#246 = APPROVAL_STATUS ( 'not_yet_approved' ) ;
#247 = APPROVAL_ROLE ( '' ) ;
#248 = PERSON_AND_ORGANIZATION_ROLE ( 'creator' ) ;
#249 = PERSON_AND_ORGANIZATION_ROLE ( 'design_supplier' ) ;
#250 = SECURITY_CLASSIFICATION_LEVEL ( 'unclassified' ) ;
#251 = PERSON_AND_ORGANIZATION_ROLE ( 'classification_officer' ) ;
#252 = CC_DESIGN_PERSON_AND_ORGANIZATION_ASSIGNMENT ( #107, #248, ( #255 ) ) ;
#253 = CC_DESIGN_APPROVAL ( #254, ( #255 ) ) ;
#254 = APPROVAL ( #246, 'UNSPECIFIED' ) ;
#255 = PRODUCT_DEFINITION_FORMATION_WITH_SPECIFIED_SOURCE ( 'ANY', '', #358, .NOT_KNOWN. ) ;
#256 = CC_DESIGN_DATE_AND_TIME_ASSIGNMENT ( #7, #245, ( #260 ) ) ;
#257 = CC_DESIGN_PERSON_AND_ORGANIZATION_ASSIGNMENT ( #12, #244, ( #260 ) ) ;
#258 = CC_DESIGN_APPROVAL ( #259, ( #260 ) ) ;
#259 = APPROVAL ( #242, 'UNSPECIFIED' ) ;
#260 = PRODUCT_DEFINITION ( 'UNKNOWN', '', #255, #366 ) ;
#261 = CC_DESIGN_PERSON_AND_ORGANIZATION_ASSIGNMENT ( #20, #239, ( #358 ) ) ;
#262 = AXIS2_PLACEMENT_3D ( 'NONE', #381, #385, #237 ) ;
#263 =( GEOMETRIC_REPRESENTATION_CONTEXT ( 3 ) GLOBAL_UNCERTAINTY_ASSIGNED_CONTEXT ( ( #350 ) ) GLOBAL_UNIT_ASSIGNED_CONTEXT ( ( #387, #227, #234 ) ) REPRESENTATION_CONTEXT ( 'NONE', 'WORKASPACE' ) );
#264 = AXIS2_PLACEMENT_3D ( 'NONE', #391, #392, #380 ) ;
#265 = AXIS2_PLACEMENT_3D ( 'NONE', #228, #229, #230 ) ;
#266 = AXIS2_PLACEMENT_3D ( 'NONE', #369, #370, #371 ) ;
#267 = PRODUCT_RELATED_PRODUCT_CATEGORY ( 'detail', '', ( #358 ) ) ;
#268 = CC_DESIGN_SECURITY_CLASSIFICATION ( #277, ( #255 ) ) ;
#269 = CC_DESIGN_APPROVAL ( #271, ( #277 ) ) ;
#270 = CC_DESIGN_PERSON_AND_ORGANIZATION_ASSIGNMENT ( #103, #249, ( #255 ) ) ;
#271 = APPROVAL ( #220, 'UNSPECIFIED' ) ;
#272 = CC_DESIGN_DATE_AND_TIME_ASSIGNMENT ( #119, #219, ( #277 ) ) ;
#273 = CC_DESIGN_PERSON_AND_ORGANIZATION_ASSIGNMENT ( #102, #251, ( #277 ) ) ;
#274 = AXIS2_PLACEMENT_3D ( 'NONE', #376, #377, #378 ) ;
#275 = AXIS2_PLACEMENT_3D ( 'NONE', #322, #323, #373 ) ;
#276 = AXIS2_PLACEMENT_3D ( 'NONE', #316, #317, #318 ) ;
#277 = SECURITY_CLASSIFICATION ( '', '', #250 ) ;
#278 = AXIS2_PLACEMENT_3D ( 'NONE', #223, #224, #225 ) ;
#279 = AXIS2_PLACEMENT_3D ( 'NONE', #126, #127, #128 ) ;
#280 = AXIS2_PLACEMENT_3D ( 'NONE', #395, #396, #397 ) ;
#281 = AXIS2_PLACEMENT_3D ( 'NONE', #110, #122, #123 ) ;
#282 = AXIS2_PLACEMENT_3D ( 'NONE', #215, #216, #217 ) ;
#283 = AXIS2_PLACEMENT_3D ( 'NONE', #344, #211, #212 ) ;
#284 = EDGE_CURVE ( 'NONE', #94, #89, #65, .T. ) ;
#285 = AXIS2_PLACEMENT_3D ( 'NONE', #341, #345, #346 ) ;
#286 = EDGE_CURVE ( 'NONE', #177, #173, #60, .T. ) ;
#287 = AXIS2_PLACEMENT_3D ( 'NONE', #336, #339, #340 ) ;
#288 = AXIS2_PLACEMENT_3D ( 'NONE', #337, #335, #331 ) ;
#289 = EDGE_CURVE ( 'NONE', #89, #156, #61, .T. ) ;
#290 = AXIS2_PLACEMENT_3D ( 'NONE', #332, #333, #334 ) ;
#291 = AXIS2_PLACEMENT_3D ( 'NONE', #330, #329, #325 ) ;
#292 = AXIS2_PLACEMENT_3D ( 'NONE', #326, #327, #328 ) ;
#293 = AXIS2_PLACEMENT_3D ( 'NONE', #115, #114, #400 ) ;
#294 = AXIS2_PLACEMENT_3D ( 'NONE', #111, #112, #113 ) ;
#295 = EDGE_CURVE ( 'NONE', #173, #177, #59, .T. ) ;
#296 = EDGE_CURVE ( 'NONE', #173, #93, #56, .T. ) ;
#297 = EDGE_CURVE ( 'NONE', #93, #207, #58, .T. ) ;
#298 = EDGE_CURVE ( 'NONE', #177, #207, #53, .T. ) ;
#299 = EDGE_CURVE ( 'NONE', #202, #90, #55, .T. ) ;
#300 = EDGE_CURVE ( 'NONE', #202, #191, #52, .T. ) ;
#301 = EDGE_CURVE ( 'NONE', #191, #95, #50, .T. ) ;
#302 = EDGE_CURVE ( 'NONE', #90, #95, #47, .T. ) ;
#303 = EDGE_CURVE ( 'NONE', #95, #191, #49, .T. ) ;
#304 = EDGE_CURVE ( 'NONE', #206, #92, #44, .T. ) ;
#305 = EDGE_CURVE ( 'NONE', #194, #206, #46, .T. ) ;
#306 = EDGE_CURVE ( 'NONE', #156, #194, #43, .T. ) ;
#307 = EDGE_CURVE ( 'NONE', #92, #156, #39, .T. ) ;
#308 = EDGE_CURVE ( 'NONE', #207, #93, #41, .T. ) ;
#309 = EDGE_CURVE ( 'NONE', #94, #92, #36, .T. ) ;
#310 = EDGE_CURVE ( 'NONE', #91, #94, #35, .T. ) ;
#311 = EDGE_CURVE ( 'NONE', #91, #206, #33, .T. ) ;
#312 = EDGE_CURVE ( 'NONE', #200, #194, #31, .T. ) ;
#313 = EDGE_CURVE ( 'NONE', #90, #202, #29, .T. ) ;
#314 = EDGE_CURVE ( 'NONE', #89, #200, #27, .T. ) ;
#315 = EDGE_CURVE ( 'NONE', #200, #91, #26, .T. ) ;
#316 = CARTESIAN_POINT ( 'NONE',  ( -0.9050000000000000300, 0.0000000000000000000, 0.0000000000000000000 ) ) ;
#317 = DIRECTION ( 'NONE',  ( 0.0000000000000000000, -1.000000000000000000, 0.0000000000000000000 ) ) ;
#318 = DIRECTION ( 'NONE',  ( 0.0000000000000000000, 0.0000000000000000000, -1.000000000000000000 ) ) ;
#319 = DIRECTION ( 'NONE',  ( -0.0000000000000000000, 1.000000000000000000, -0.0000000000000000000 ) ) ;
#320 = DIRECTION ( 'NONE',  ( -0.0000000000000000000, 1.000000000000000000, -0.0000000000000000000 ) ) ;
#321 = CARTESIAN_POINT ( 'NONE',  ( 0.9049999999999999200, -0.1200000000000000000, -0.02000000000000007700 ) ) ;
#322 = CARTESIAN_POINT ( 'NONE',  ( 0.9049999999999999200, -0.1200000000000000000, 0.0000000000000000000 ) ) ;
#323 = DIRECTION ( 'NONE',  ( 0.0000000000000000000, -1.000000000000000000, 0.0000000000000000000 ) ) ;
#324 = PLANE ( 'NONE',  #292 ) ;
#325 = DIRECTION ( 'NONE',  ( 0.0000000000000000000, 0.0000000000000000000, 1.000000000000000000 ) ) ;
#326 = CARTESIAN_POINT ( 'NONE',  ( -0.9050000000000000300, -0.1200000000000000000, 0.0000000000000000000 ) ) ;
#327 = DIRECTION ( 'NONE',  ( 0.0000000000000000000, -1.000000000000000000, 0.0000000000000000000 ) ) ;
#328 = DIRECTION ( 'NONE',  ( 0.0000000000000000000, -0.0000000000000000000, -1.000000000000000000 ) ) ;
#329 = DIRECTION ( 'NONE',  ( -0.0000000000000000000, 1.000000000000000000, -0.0000000000000000000 ) ) ;
#330 = CARTESIAN_POINT ( 'NONE',  ( -0.9050000000000000300, -0.1200000000000000000, 0.0000000000000000000 ) ) ;
#331 = DIRECTION ( 'NONE',  ( 0.0000000000000000000, 0.0000000000000000000, 1.000000000000000000 ) ) ;
#332 = CARTESIAN_POINT ( 'NONE',  ( -0.9050000000000000300, -0.1200000000000000000, 0.0000000000000000000 ) ) ;
#333 = DIRECTION ( 'NONE',  ( -0.0000000000000000000, 1.000000000000000000, -0.0000000000000000000 ) ) ;
#334 = DIRECTION ( 'NONE',  ( 0.0000000000000000000, 0.0000000000000000000, 1.000000000000000000 ) ) ;
#335 = DIRECTION ( 'NONE',  ( -0.0000000000000000000, 1.000000000000000000, -0.0000000000000000000 ) ) ;
#336 = CARTESIAN_POINT ( 'NONE',  ( 0.0000000000000000000, 0.3300000000000000200, 0.0000000000000000000 ) ) ;
#337 = CARTESIAN_POINT ( 'NONE',  ( 0.9049999999999999200, -0.1200000000000000000, 0.0000000000000000000 ) ) ;
#338 = PLANE ( 'NONE',  #287 ) ;
#339 = DIRECTION ( 'NONE',  ( 0.0000000000000000000, -1.000000000000000000, 0.0000000000000000000 ) ) ;
#340 = DIRECTION ( 'NONE',  ( 0.0000000000000000000, -0.0000000000000000000, -1.000000000000000000 ) ) ;
#341 = CARTESIAN_POINT ( 'NONE',  ( 0.0000000000000000000, 0.0000000000000000000, 0.0000000000000000000 ) ) ;
#342 = DIRECTION ( 'NONE',  ( -1.000000000000000000, -0.0000000000000000000, -0.0000000000000000000 ) ) ;
#343 = PLANE ( 'NONE',  #285 ) ;
#344 = CARTESIAN_POINT ( 'NONE',  ( 0.9649999999999998600, 0.3300000000000000200, 0.2050000000000000400 ) ) ;
#345 = DIRECTION ( 'NONE',  ( 0.0000000000000000000, -1.000000000000000000, 0.0000000000000000000 ) ) ;
#346 = DIRECTION ( 'NONE',  ( 0.0000000000000000000, -0.0000000000000000000, -1.000000000000000000 ) ) ;
#347 = PLANE ( 'NONE',  #283 ) ;
#348 = MANIFOLD_SOLID_BREP ( 'Boss-Extrude2', #187 ) ;
#349 = ADVANCED_BREP_SHAPE_REPRESENTATION ( 'BEAAAAPC', ( #348, #262 ), #263 ) ;
#350 = UNCERTAINTY_MEASURE_WITH_UNIT (LENGTH_MEASURE( 1.000000000000000100E-005 ), #387, 'distance_accuracy_value', 'NONE');
#351 = CARTESIAN_POINT ( 'NONE',  ( -0.9050000000000000300, -0.1200000000000000000, -0.01999999999999993100 ) ) ;
#352 = CARTESIAN_POINT ( 'NONE',  ( 0.9049999999999999200, 0.0000000000000000000, -0.02000000000000007700 ) ) ;
#353 = CARTESIAN_POINT ( 'NONE',  ( 0.9049999999999999200, -0.1200000000000000000, -0.02000000000000007700 ) ) ;
#354 = CARTESIAN_POINT ( 'NONE',  ( 0.9649999999999998600, 0.0000000000000000000, 0.2050000000000000400 ) ) ;
#355 = CARTESIAN_POINT ( 'NONE',  ( -0.9050000000000000300, 0.0000000000000000000, 0.01999999999999993100 ) ) ;
#356 = CARTESIAN_POINT ( 'NONE',  ( -0.9650000000000000800, 0.3300000000000000200, -0.2049999999999999600 ) ) ;
#357 = PERSON ( 'UNSPECIFIED', 'UNSPECIFIED', 'UNSPECIFIED', ('UNSPECIFIED'), ('UNSPECIFIED'), ('UNSPECIFIED') ) ;
#358 = PRODUCT ( 'BEAAAAPC', 'BEAAAAPC', '', ( #238 ) ) ;
#359 = DIRECTION ( 'NONE',  ( -0.0000000000000000000, -1.000000000000000000, -0.0000000000000000000 ) ) ;
#360 = DIRECTION ( 'NONE',  ( -0.0000000000000000000, -0.0000000000000000000, 1.000000000000000000 ) ) ;
#361 = CARTESIAN_POINT ( 'NONE',  ( -0.9650000000000000800, 0.0000000000000000000, -0.2049999999999999600 ) ) ;
#362 = CARTESIAN_POINT ( 'NONE',  ( 0.9649999999999998600, 0.3300000000000000200, -0.2049999999999999600 ) ) ;
#363 = DIRECTION ( 'NONE',  ( -1.000000000000000000, -0.0000000000000000000, -0.0000000000000000000 ) ) ;
#364 = CARTESIAN_POINT ( 'NONE',  ( -0.9650000000000000800, 0.3300000000000000200, 0.2050000000000000400 ) ) ;
#365 = PRODUCT_DEFINITION_SHAPE ( 'NONE', 'NONE',  #260 ) ;
#366 = DESIGN_CONTEXT ( 'detailed design', #240, 'design' ) ;
#367 = CARTESIAN_POINT ( 'NONE',  ( -0.9650000000000000800, 0.0000000000000000000, 0.2050000000000000400 ) ) ;
#368 = CARTESIAN_POINT ( 'NONE',  ( -0.9650000000000000800, 0.0000000000000000000, 0.2050000000000000400 ) ) ;
#369 = CARTESIAN_POINT ( 'NONE',  ( 0.9049999999999999200, 0.0000000000000000000, 0.0000000000000000000 ) ) ;
#370 = DIRECTION ( 'NONE',  ( 0.0000000000000000000, -1.000000000000000000, 0.0000000000000000000 ) ) ;
#371 = DIRECTION ( 'NONE',  ( 0.0000000000000000000, 0.0000000000000000000, -1.000000000000000000 ) ) ;
#372 = DIRECTION ( 'NONE',  ( 1.000000000000000000, 0.0000000000000000000, 0.0000000000000000000 ) ) ;
#373 = DIRECTION ( 'NONE',  ( 0.0000000000000000000, 0.0000000000000000000, -1.000000000000000000 ) ) ;
#374 = CARTESIAN_POINT ( 'NONE',  ( 0.9049999999999999200, -0.1200000000000000000, 0.02000000000000007700 ) ) ;
#375 = DIRECTION ( 'NONE',  ( 0.0000000000000000000, 0.0000000000000000000, -1.000000000000000000 ) ) ;
#376 = CARTESIAN_POINT ( 'NONE',  ( 0.9049999999999999200, 0.0000000000000000000, 0.0000000000000000000 ) ) ;
#377 = DIRECTION ( 'NONE',  ( 0.0000000000000000000, -1.000000000000000000, 0.0000000000000000000 ) ) ;
#378 = DIRECTION ( 'NONE',  ( 0.0000000000000000000, 0.0000000000000000000, -1.000000000000000000 ) ) ;
#379 = CARTESIAN_POINT ( 'NONE',  ( 0.9649999999999998600, 0.0000000000000000000, 0.2050000000000000400 ) ) ;
#380 = DIRECTION ( 'NONE',  ( 0.0000000000000000000, 0.0000000000000000000, -1.000000000000000000 ) ) ;
#381 = CARTESIAN_POINT ( 'NONE',  ( 0.0000000000000000000, 0.0000000000000000000, 0.0000000000000000000 ) ) ;
#382 = DIRECTION ( 'NONE',  ( -0.0000000000000000000, -0.0000000000000000000, 1.000000000000000000 ) ) ;
#383 = CARTESIAN_POINT ( 'NONE',  ( -0.9650000000000000800, 0.3300000000000000200, 0.2050000000000000400 ) ) ;
#384 = DIRECTION ( 'NONE',  ( 1.000000000000000000, 0.0000000000000000000, 0.0000000000000000000 ) ) ;
#385 = DIRECTION ( 'NONE',  ( 0.0000000000000000000, 0.0000000000000000000, 1.000000000000000000 ) ) ;
#386 =( LENGTH_UNIT ( ) NAMED_UNIT ( * ) SI_UNIT ( $, .METRE. ) );
#387 =( CONVERSION_BASED_UNIT ( 'INCH', #23 ) LENGTH_UNIT ( ) NAMED_UNIT ( #135 ) );
#388 = DIRECTION ( 'NONE',  ( -0.0000000000000000000, -1.000000000000000000, -0.0000000000000000000 ) ) ;
#389 = CARTESIAN_POINT ( 'NONE',  ( -0.9650000000000000800, 0.3300000000000000200, 0.2050000000000000400 ) ) ;
#390 = DIRECTION ( 'NONE',  ( -0.0000000000000000000, -1.000000000000000000, -0.0000000000000000000 ) ) ;
#391 = CARTESIAN_POINT ( 'NONE',  ( 0.9049999999999999200, -0.1200000000000000000, 0.0000000000000000000 ) ) ;
#392 = DIRECTION ( 'NONE',  ( 0.0000000000000000000, -1.000000000000000000, 0.0000000000000000000 ) ) ;
#393 = DIRECTION ( 'NONE',  ( -0.0000000000000000000, 1.000000000000000000, -0.0000000000000000000 ) ) ;
#394 = CARTESIAN_POINT ( 'NONE',  ( -0.9650000000000000800, 0.3300000000000000200, -0.2049999999999999600 ) ) ;
#395 = CARTESIAN_POINT ( 'NONE',  ( -0.9050000000000000300, -0.1200000000000000000, 0.0000000000000000000 ) ) ;
#396 = DIRECTION ( 'NONE',  ( 0.0000000000000000000, -1.000000000000000000, 0.0000000000000000000 ) ) ;
#397 = DIRECTION ( 'NONE',  ( 0.0000000000000000000, 0.0000000000000000000, -1.000000000000000000 ) ) ;
#398 = CARTESIAN_POINT ( 'NONE',  ( -0.9050000000000000300, -0.1200000000000000000, -0.01999999999999993100 ) ) ;
#399 = DIRECTION ( 'NONE',  ( -0.0000000000000000000, -1.000000000000000000, -0.0000000000000000000 ) ) ;
#400 = DIRECTION ( 'NONE',  ( 0.0000000000000000000, 0.0000000000000000000, 1.000000000000000000 ) ) ;
ENDSEC;
END-ISO-10303-21;
