ISO-10303-21;
HEADER;
FILE_DESCRIPTION (( 'STEP AP203' ),
    '1' );
FILE_NAME ('BEAAAAW.STEP',
    '2014-06-13T19:54:44',
    ( 'Intern' ),
    ( '' ),
    'SwSTEP 2.0',
    'SolidWorks 2012',
    '' );
FILE_SCHEMA (( 'CONFIG_CONTROL_DESIGN' ));
ENDSEC;

DATA;
#1 = PRODUCT ( 'BEAAAAW', 'BEAAAAW', '', ( #182 ) ) ;
#2 = PERSON ( 'UNSPECIFIED', 'UNSPECIFIED', 'UNSPECIFIED', ('UNSPECIFIED'), ('UNSPECIFIED'), ('UNSPECIFIED') ) ;
#3 = PERSON_AND_ORGANIZATION ( #2, #41 ) ;
#4 = PERSON_AND_ORGANIZATION ( #2, #41 ) ;
#5 = APPROVAL_DATE_TIME ( #6, #152 ) ;
#6 = DATE_AND_TIME ( #7, #8 ) ;
#7 = CALENDAR_DATE ( 2014, 13, 6 ) ;
#8 = LOCAL_TIME ( 15, 54, 44.00000000000000000, #9 ) ;
#9 = COORDINATED_UNIVERSAL_TIME_OFFSET ( 5, 0, .BEHIND. ) ;
#10 = APPROVAL_PERSON_ORGANIZATION ( #11, #152, #172 ) ;
#11 = PERSON_AND_ORGANIZATION ( #2, #41 ) ;
#12 = DATE_AND_TIME ( #13, #14 ) ;
#13 = CALENDAR_DATE ( 2014, 13, 6 ) ;
#14 = LOCAL_TIME ( 15, 54, 44.00000000000000000, #15 ) ;
#15 = COORDINATED_UNIVERSAL_TIME_OFFSET ( 5, 0, .BEHIND. ) ;
#16 = PERSON_AND_ORGANIZATION ( #2, #41 ) ;
#17 = APPROVAL_DATE_TIME ( #18, #132 ) ;
#18 = DATE_AND_TIME ( #19, #20 ) ;
#19 = CALENDAR_DATE ( 2014, 13, 6 ) ;
#20 = LOCAL_TIME ( 15, 54, 44.00000000000000000, #21 ) ;
#21 = COORDINATED_UNIVERSAL_TIME_OFFSET ( 5, 0, .BEHIND. ) ;
#22 = APPROVAL_PERSON_ORGANIZATION ( #23, #132, #168 ) ;
#23 = PERSON_AND_ORGANIZATION ( #2, #41 ) ;
#24 = PERSON_AND_ORGANIZATION ( #2, #41 ) ;
#25 = VERTEX_POINT ( 'NONE', #210 ) ;
#26 = VERTEX_POINT ( 'NONE', #211 ) ;
#27 = VERTEX_POINT ( 'NONE', #204 ) ;
#28 = VERTEX_POINT ( 'NONE', #206 ) ;
#29 = VERTEX_POINT ( 'NONE', #205 ) ;
#30 = ORIENTED_EDGE ( 'NONE', *, *, #163, .T. ) ;
#31 = ORIENTED_EDGE ( 'NONE', *, *, #139, .F. ) ;
#32 = ORIENTED_EDGE ( 'NONE', *, *, #160, .F. ) ;
#33 = VERTEX_POINT ( 'NONE', #208 ) ;
#34 = VERTEX_POINT ( 'NONE', #207 ) ;
#35 = VERTEX_POINT ( 'NONE', #127 ) ;
#36 = FACE_OUTER_BOUND ( 'NONE', #70, .T. ) ;
#37 = LENGTH_MEASURE_WITH_UNIT ( LENGTH_MEASURE( 0.02539999999999999900 ), #121 );
#38 = SHAPE_DEFINITION_REPRESENTATION ( #201, #187 ) ;
#39 = EDGE_LOOP ( 'NONE', ( #92, #91, #32, #87 ) ) ;
#40 = VECTOR ( 'NONE', #119, 39.37007874015748100 ) ;
#41 = ORGANIZATION ( 'UNSPECIFIED', 'UNSPECIFIED', '' ) ;
#42 = VECTOR ( 'NONE', #117, 39.37007874015748100 ) ;
#43 = LINE ( 'NONE', #118, #40 ) ;
#44 = VECTOR ( 'NONE', #199, 39.37007874015748100 ) ;
#45 = LINE ( 'NONE', #200, #42 ) ;
#46 = VECTOR ( 'NONE', #197, 39.37007874015748100 ) ;
#47 = LINE ( 'NONE', #198, #44 ) ;
#48 = VECTOR ( 'NONE', #195, 39.37007874015748100 ) ;
#49 = LINE ( 'NONE', #196, #46 ) ;
#50 = VECTOR ( 'NONE', #217, 39.37007874015748100 ) ;
#51 = VECTOR ( 'NONE', #216, 39.37007874015748100 ) ;
#52 = LINE ( 'NONE', #223, #48 ) ;
#53 = VECTOR ( 'NONE', #214, 39.37007874015748100 ) ;
#54 = LINE ( 'NONE', #215, #51 ) ;
#55 = VECTOR ( 'NONE', #224, 39.37007874015748100 ) ;
#56 = LINE ( 'NONE', #213, #53 ) ;
#57 = VECTOR ( 'NONE', #222, 39.37007874015748100 ) ;
#58 = LINE ( 'NONE', #221, #50 ) ;
#59 = VECTOR ( 'NONE', #220, 39.37007874015748100 ) ;
#60 = LINE ( 'NONE', #218, #55 ) ;
#61 = LINE ( 'NONE', #228, #57 ) ;
#62 = LINE ( 'NONE', #233, #59 ) ;
#63 = VECTOR ( 'NONE', #219, 39.37007874015748100 ) ;
#64 = FACE_OUTER_BOUND ( 'NONE', #73, .T. ) ;
#65 = FACE_OUTER_BOUND ( 'NONE', #74, .T. ) ;
#66 = LINE ( 'NONE', #232, #63 ) ;
#67 = FACE_OUTER_BOUND ( 'NONE', #39, .T. ) ;
#68 = FACE_OUTER_BOUND ( 'NONE', #71, .T. ) ;
#69 = FACE_OUTER_BOUND ( 'NONE', #72, .T. ) ;
#70 = EDGE_LOOP ( 'NONE', ( #79, #88, #76, #89 ) ) ;
#71 = EDGE_LOOP ( 'NONE', ( #93, #94, #84, #80 ) ) ;
#72 = EDGE_LOOP ( 'NONE', ( #30, #96, #82, #81 ) ) ;
#73 = EDGE_LOOP ( 'NONE', ( #86, #85, #95, #83 ) ) ;
#74 = EDGE_LOOP ( 'NONE', ( #77, #31, #90, #75 ) ) ;
#75 = ORIENTED_EDGE ( 'NONE', *, *, #158, .T. ) ;
#76 = ORIENTED_EDGE ( 'NONE', *, *, #162, .F. ) ;
#77 = ORIENTED_EDGE ( 'NONE', *, *, #161, .T. ) ;
#78 = CLOSED_SHELL ( 'NONE', ( #114, #112, #111, #115, #113, #109 ) ) ;
#79 = ORIENTED_EDGE ( 'NONE', *, *, #164, .T. ) ;
#80 = ORIENTED_EDGE ( 'NONE', *, *, #159, .T. ) ;
#81 = ORIENTED_EDGE ( 'NONE', *, *, #156, .T. ) ;
#82 = ORIENTED_EDGE ( 'NONE', *, *, #133, .T. ) ;
#83 = ORIENTED_EDGE ( 'NONE', *, *, #157, .T. ) ;
#84 = ORIENTED_EDGE ( 'NONE', *, *, #133, .F. ) ;
#85 = ORIENTED_EDGE ( 'NONE', *, *, #158, .F. ) ;
#86 = ORIENTED_EDGE ( 'NONE', *, *, #135, .T. ) ;
#87 = ORIENTED_EDGE ( 'NONE', *, *, #164, .F. ) ;
#88 = ORIENTED_EDGE ( 'NONE', *, *, #159, .F. ) ;
#89 = ORIENTED_EDGE ( 'NONE', *, *, #139, .T. ) ;
#90 = ORIENTED_EDGE ( 'NONE', *, *, #163, .F. ) ;
#91 = ORIENTED_EDGE ( 'NONE', *, *, #135, .F. ) ;
#92 = ORIENTED_EDGE ( 'NONE', *, *, #161, .F. ) ;
#93 = ORIENTED_EDGE ( 'NONE', *, *, #160, .T. ) ;
#94 = ORIENTED_EDGE ( 'NONE', *, *, #157, .F. ) ;
#95 = ORIENTED_EDGE ( 'NONE', *, *, #156, .F. ) ;
#96 = ORIENTED_EDGE ( 'NONE', *, *, #162, .T. ) ;
#97 = APPROVAL_DATE_TIME ( #105, #145 ) ;
#98 = APPROVAL_PERSON_ORGANIZATION ( #102, #145, #167 ) ;
#99 = CALENDAR_DATE ( 2014, 13, 6 ) ;
#100 = LOCAL_TIME ( 15, 54, 44.00000000000000000, #106 ) ;
#101 = DATE_AND_TIME ( #107, #104 ) ;
#102 = PERSON_AND_ORGANIZATION ( #2, #41 ) ;
#103 = PERSON_AND_ORGANIZATION ( #2, #41 ) ;
#104 = LOCAL_TIME ( 15, 54, 44.00000000000000000, #108 ) ;
#105 = DATE_AND_TIME ( #99, #100 ) ;
#106 = COORDINATED_UNIVERSAL_TIME_OFFSET ( 5, 0, .BEHIND. ) ;
#107 = CALENDAR_DATE ( 2014, 13, 6 ) ;
#108 = COORDINATED_UNIVERSAL_TIME_OFFSET ( 5, 0, .BEHIND. ) ;
#109 = ADVANCED_FACE ( 'NONE', ( #67 ), #212, .T. ) ;
#110 = DIMENSIONAL_EXPONENTS ( 1.000000000000000000, 0.0000000000000000000, 0.0000000000000000000, 0.0000000000000000000, 0.0000000000000000000, 0.0000000000000000000, 0.0000000000000000000 ) ;
#111 = ADVANCED_FACE ( 'NONE', ( #68 ), #236, .F. ) ;
#112 = ADVANCED_FACE ( 'NONE', ( #36 ), #240, .F. ) ;
#113 = ADVANCED_FACE ( 'NONE', ( #69 ), #190, .F. ) ;
#114 = ADVANCED_FACE ( 'NONE', ( #65 ), #194, .F. ) ;
#115 = ADVANCED_FACE ( 'NONE', ( #64 ), #227, .F. ) ;
#116 = CARTESIAN_POINT ( 'NONE',  ( -0.9650000000000000800, 0.3300000000000000200, -0.2049999999999999600 ) ) ;
#117 = DIRECTION ( 'NONE',  ( 0.0000000000000000000, 0.0000000000000000000, -1.000000000000000000 ) ) ;
#118 = CARTESIAN_POINT ( 'NONE',  ( -0.9650000000000000800, 0.0000000000000000000, -0.2049999999999999600 ) ) ;
#119 = DIRECTION ( 'NONE',  ( -1.000000000000000000, -0.0000000000000000000, -0.0000000000000000000 ) ) ;
#120 = CARTESIAN_POINT ( 'NONE',  ( 0.0000000000000000000, 0.0000000000000000000, 0.0000000000000000000 ) ) ;
#121 =( LENGTH_UNIT ( ) NAMED_UNIT ( * ) SI_UNIT ( $, .METRE. ) );
#122 =( CONVERSION_BASED_UNIT ( 'INCH', #37 ) LENGTH_UNIT ( ) NAMED_UNIT ( #110 ) );
#123 =( NAMED_UNIT ( * ) PLANE_ANGLE_UNIT ( ) SI_UNIT ( $, .RADIAN. ) );
#124 =( NAMED_UNIT ( * ) SI_UNIT ( $, .STERADIAN. ) SOLID_ANGLE_UNIT ( ) );
#125 = UNCERTAINTY_MEASURE_WITH_UNIT (LENGTH_MEASURE( 1.000000000000000100E-005 ), #122, 'distance_accuracy_value', 'NONE');
#126 = MANIFOLD_SOLID_BREP ( 'Boss-Extrude1', #78 ) ;
#127 = CARTESIAN_POINT ( 'NONE',  ( -0.9650000000000000800, 0.3300000000000000200, -0.2049999999999999600 ) ) ;
#128 = CC_DESIGN_PERSON_AND_ORGANIZATION_ASSIGNMENT ( #24, #183, ( #1 ) ) ;
#129 = AXIS2_PLACEMENT_3D ( 'NONE', #120, #180, #181 ) ;
#130 = CC_DESIGN_APPROVAL ( #132, ( #131 ) ) ;
#131 = PRODUCT_DEFINITION ( 'UNKNOWN', '', #165, #202 ) ;
#132 = APPROVAL ( #186, 'UNSPECIFIED' ) ;
#133 = EDGE_CURVE ( 'NONE', #35, #28, #66, .T. ) ;
#134 = AXIS2_PLACEMENT_3D ( 'NONE', #229, #230, #231 ) ;
#135 = EDGE_CURVE ( 'NONE', #27, #29, #62, .T. ) ;
#136 =( GEOMETRIC_REPRESENTATION_CONTEXT ( 3 ) GLOBAL_UNCERTAINTY_ASSIGNED_CONTEXT ( ( #125 ) ) GLOBAL_UNIT_ASSIGNED_CONTEXT ( ( #122, #123, #124 ) ) REPRESENTATION_CONTEXT ( 'NONE', 'WORKASPACE' ) );
#137 = AXIS2_PLACEMENT_3D ( 'NONE', #203, #225, #226 ) ;
#138 = CC_DESIGN_DATE_AND_TIME_ASSIGNMENT ( #12, #170, ( #131 ) ) ;
#139 = EDGE_CURVE ( 'NONE', #26, #25, #61, .T. ) ;
#140 = CC_DESIGN_PERSON_AND_ORGANIZATION_ASSIGNMENT ( #16, #169, ( #131 ) ) ;
#141 = PRODUCT_RELATED_PRODUCT_CATEGORY ( 'detail', '', ( #1 ) ) ;
#142 = AXIS2_PLACEMENT_3D ( 'NONE', #191, #192, #193 ) ;
#143 = CC_DESIGN_SECURITY_CLASSIFICATION ( #148, ( #165 ) ) ;
#144 = CC_DESIGN_APPROVAL ( #145, ( #148 ) ) ;
#145 = APPROVAL ( #166, 'UNSPECIFIED' ) ;
#146 = CC_DESIGN_DATE_AND_TIME_ASSIGNMENT ( #101, #177, ( #148 ) ) ;
#147 = CC_DESIGN_PERSON_AND_ORGANIZATION_ASSIGNMENT ( #103, #176, ( #148 ) ) ;
#148 = SECURITY_CLASSIFICATION ( '', '', #175 ) ;
#149 = CC_DESIGN_PERSON_AND_ORGANIZATION_ASSIGNMENT ( #3, #174, ( #165 ) ) ;
#150 = CC_DESIGN_PERSON_AND_ORGANIZATION_ASSIGNMENT ( #4, #173, ( #165 ) ) ;
#151 = CC_DESIGN_APPROVAL ( #152, ( #165 ) ) ;
#152 = APPROVAL ( #171, 'UNSPECIFIED' ) ;
#153 = AXIS2_PLACEMENT_3D ( 'NONE', #116, #188, #189 ) ;
#154 = AXIS2_PLACEMENT_3D ( 'NONE', #237, #238, #239 ) ;
#155 = AXIS2_PLACEMENT_3D ( 'NONE', #209, #234, #235 ) ;
#156 = EDGE_CURVE ( 'NONE', #28, #33, #60, .T. ) ;
#157 = EDGE_CURVE ( 'NONE', #28, #27, #56, .T. ) ;
#158 = EDGE_CURVE ( 'NONE', #33, #29, #54, .T. ) ;
#159 = EDGE_CURVE ( 'NONE', #35, #34, #58, .T. ) ;
#160 = EDGE_CURVE ( 'NONE', #34, #27, #52, .T. ) ;
#161 = EDGE_CURVE ( 'NONE', #29, #25, #49, .T. ) ;
#162 = EDGE_CURVE ( 'NONE', #26, #35, #47, .T. ) ;
#163 = EDGE_CURVE ( 'NONE', #33, #26, #45, .T. ) ;
#164 = EDGE_CURVE ( 'NONE', #25, #34, #43, .T. ) ;
#165 = PRODUCT_DEFINITION_FORMATION_WITH_SPECIFIED_SOURCE ( 'ANY', '', #1, .NOT_KNOWN. ) ;
#166 = APPROVAL_STATUS ( 'not_yet_approved' ) ;
#167 = APPROVAL_ROLE ( '' ) ;
#168 = APPROVAL_ROLE ( '' ) ;
#169 = PERSON_AND_ORGANIZATION_ROLE ( 'creator' ) ;
#170 = DATE_TIME_ROLE ( 'creation_date' ) ;
#171 = APPROVAL_STATUS ( 'not_yet_approved' ) ;
#172 = APPROVAL_ROLE ( '' ) ;
#173 = PERSON_AND_ORGANIZATION_ROLE ( 'creator' ) ;
#174 = PERSON_AND_ORGANIZATION_ROLE ( 'design_supplier' ) ;
#175 = SECURITY_CLASSIFICATION_LEVEL ( 'unclassified' ) ;
#176 = PERSON_AND_ORGANIZATION_ROLE ( 'classification_officer' ) ;
#177 = DATE_TIME_ROLE ( 'classification_date' ) ;
#178 = APPLICATION_PROTOCOL_DEFINITION ( 'international standard', 'config_control_design', 1994, #179 ) ;
#179 = APPLICATION_CONTEXT ( 'configuration controlled 3d designs of mechanical parts and assemblies' ) ;
#180 = DIRECTION ( 'NONE',  ( 0.0000000000000000000, 0.0000000000000000000, 1.000000000000000000 ) ) ;
#181 = DIRECTION ( 'NONE',  ( 1.000000000000000000, 0.0000000000000000000, 0.0000000000000000000 ) ) ;
#182 = MECHANICAL_CONTEXT ( 'NONE', #179, 'mechanical' ) ;
#183 = PERSON_AND_ORGANIZATION_ROLE ( 'design_owner' ) ;
#184 = APPLICATION_CONTEXT ( 'configuration controlled 3d designs of mechanical parts and assemblies' ) ;
#185 = APPLICATION_PROTOCOL_DEFINITION ( 'international standard', 'config_control_design', 1994, #184 ) ;
#186 = APPROVAL_STATUS ( 'not_yet_approved' ) ;
#187 = ADVANCED_BREP_SHAPE_REPRESENTATION ( 'BEAAAAW', ( #126, #129 ), #136 ) ;
#188 = DIRECTION ( 'NONE',  ( 0.0000000000000000000, 0.0000000000000000000, 1.000000000000000000 ) ) ;
#189 = DIRECTION ( 'NONE',  ( 1.000000000000000000, 0.0000000000000000000, -0.0000000000000000000 ) ) ;
#190 = PLANE ( 'NONE',  #142 ) ;
#191 = CARTESIAN_POINT ( 'NONE',  ( 0.0000000000000000000, 0.3300000000000000200, 0.0000000000000000000 ) ) ;
#192 = DIRECTION ( 'NONE',  ( 0.0000000000000000000, -1.000000000000000000, 0.0000000000000000000 ) ) ;
#193 = DIRECTION ( 'NONE',  ( 0.0000000000000000000, -0.0000000000000000000, -1.000000000000000000 ) ) ;
#194 = PLANE ( 'NONE',  #137 ) ;
#195 = DIRECTION ( 'NONE',  ( -0.0000000000000000000, -0.0000000000000000000, 1.000000000000000000 ) ) ;
#196 = CARTESIAN_POINT ( 'NONE',  ( 0.9649999999999998600, 0.0000000000000000000, 0.2050000000000000400 ) ) ;
#197 = DIRECTION ( 'NONE',  ( 0.0000000000000000000, 0.0000000000000000000, -1.000000000000000000 ) ) ;
#198 = CARTESIAN_POINT ( 'NONE',  ( -0.9650000000000000800, 0.3300000000000000200, -0.2049999999999999600 ) ) ;
#199 = DIRECTION ( 'NONE',  ( -1.000000000000000000, -0.0000000000000000000, -0.0000000000000000000 ) ) ;
#200 = CARTESIAN_POINT ( 'NONE',  ( 0.9649999999999998600, 0.3300000000000000200, 0.2050000000000000400 ) ) ;
#201 = PRODUCT_DEFINITION_SHAPE ( 'NONE', 'NONE',  #131 ) ;
#202 = DESIGN_CONTEXT ( 'detailed design', #184, 'design' ) ;
#203 = CARTESIAN_POINT ( 'NONE',  ( 0.9649999999999998600, 0.3300000000000000200, 0.2050000000000000400 ) ) ;
#204 = CARTESIAN_POINT ( 'NONE',  ( -0.9650000000000000800, 0.0000000000000000000, 0.2050000000000000400 ) ) ;
#205 = CARTESIAN_POINT ( 'NONE',  ( 0.9649999999999998600, 0.0000000000000000000, 0.2050000000000000400 ) ) ;
#206 = CARTESIAN_POINT ( 'NONE',  ( -0.9650000000000000800, 0.3300000000000000200, 0.2050000000000000400 ) ) ;
#207 = CARTESIAN_POINT ( 'NONE',  ( -0.9650000000000000800, 0.0000000000000000000, -0.2049999999999999600 ) ) ;
#208 = CARTESIAN_POINT ( 'NONE',  ( 0.9649999999999998600, 0.3300000000000000200, 0.2050000000000000400 ) ) ;
#209 = CARTESIAN_POINT ( 'NONE',  ( 0.0000000000000000000, 0.0000000000000000000, 0.0000000000000000000 ) ) ;
#210 = CARTESIAN_POINT ( 'NONE',  ( 0.9649999999999998600, 0.0000000000000000000, -0.2049999999999999600 ) ) ;
#211 = CARTESIAN_POINT ( 'NONE',  ( 0.9649999999999998600, 0.3300000000000000200, -0.2049999999999999600 ) ) ;
#212 = PLANE ( 'NONE',  #155 ) ;
#213 = CARTESIAN_POINT ( 'NONE',  ( -0.9650000000000000800, 0.3300000000000000200, 0.2050000000000000400 ) ) ;
#214 = DIRECTION ( 'NONE',  ( -0.0000000000000000000, -1.000000000000000000, -0.0000000000000000000 ) ) ;
#215 = CARTESIAN_POINT ( 'NONE',  ( 0.9649999999999998600, 0.3300000000000000200, 0.2050000000000000400 ) ) ;
#216 = DIRECTION ( 'NONE',  ( -0.0000000000000000000, -1.000000000000000000, -0.0000000000000000000 ) ) ;
#217 = DIRECTION ( 'NONE',  ( -0.0000000000000000000, -1.000000000000000000, -0.0000000000000000000 ) ) ;
#218 = CARTESIAN_POINT ( 'NONE',  ( -0.9650000000000000800, 0.3300000000000000200, 0.2050000000000000400 ) ) ;
#219 = DIRECTION ( 'NONE',  ( -0.0000000000000000000, -0.0000000000000000000, 1.000000000000000000 ) ) ;
#220 = DIRECTION ( 'NONE',  ( 1.000000000000000000, 0.0000000000000000000, 0.0000000000000000000 ) ) ;
#221 = CARTESIAN_POINT ( 'NONE',  ( -0.9650000000000000800, 0.3300000000000000200, -0.2049999999999999600 ) ) ;
#222 = DIRECTION ( 'NONE',  ( -0.0000000000000000000, -1.000000000000000000, -0.0000000000000000000 ) ) ;
#223 = CARTESIAN_POINT ( 'NONE',  ( -0.9650000000000000800, 0.0000000000000000000, 0.2050000000000000400 ) ) ;
#224 = DIRECTION ( 'NONE',  ( 1.000000000000000000, 0.0000000000000000000, 0.0000000000000000000 ) ) ;
#225 = DIRECTION ( 'NONE',  ( -1.000000000000000000, 0.0000000000000000000, 0.0000000000000000000 ) ) ;
#226 = DIRECTION ( 'NONE',  ( 0.0000000000000000000, 0.0000000000000000000, 1.000000000000000000 ) ) ;
#227 = PLANE ( 'NONE',  #134 ) ;
#228 = CARTESIAN_POINT ( 'NONE',  ( 0.9649999999999998600, 0.3300000000000000200, -0.2049999999999999600 ) ) ;
#229 = CARTESIAN_POINT ( 'NONE',  ( -0.9650000000000000800, 0.3300000000000000200, 0.2050000000000000400 ) ) ;
#230 = DIRECTION ( 'NONE',  ( 0.0000000000000000000, 0.0000000000000000000, -1.000000000000000000 ) ) ;
#231 = DIRECTION ( 'NONE',  ( -1.000000000000000000, 0.0000000000000000000, -0.0000000000000000000 ) ) ;
#232 = CARTESIAN_POINT ( 'NONE',  ( -0.9650000000000000800, 0.3300000000000000200, 0.2050000000000000400 ) ) ;
#233 = CARTESIAN_POINT ( 'NONE',  ( -0.9650000000000000800, 0.0000000000000000000, 0.2050000000000000400 ) ) ;
#234 = DIRECTION ( 'NONE',  ( 0.0000000000000000000, -1.000000000000000000, 0.0000000000000000000 ) ) ;
#235 = DIRECTION ( 'NONE',  ( 0.0000000000000000000, -0.0000000000000000000, -1.000000000000000000 ) ) ;
#236 = PLANE ( 'NONE',  #154 ) ;
#237 = CARTESIAN_POINT ( 'NONE',  ( -0.9650000000000000800, 0.3300000000000000200, 0.2050000000000000400 ) ) ;
#238 = DIRECTION ( 'NONE',  ( 1.000000000000000000, -0.0000000000000000000, 0.0000000000000000000 ) ) ;
#239 = DIRECTION ( 'NONE',  ( 0.0000000000000000000, 0.0000000000000000000, -1.000000000000000000 ) ) ;
#240 = PLANE ( 'NONE',  #153 ) ;
ENDSEC;
END-ISO-10303-21;
