ISO-10303-21;
HEADER;
FILE_DESCRIPTION (( 'STEP AP203' ),
    '1' );
FILE_NAME ('BH28AAL.STEP',
    '2014-08-22T18:19:53',
    ( 'Intern' ),
    ( '' ),
    'SwSTEP 2.0',
    'SolidWorks 2012',
    '' );
FILE_SCHEMA (( 'CONFIG_CONTROL_DESIGN' ));
ENDSEC;

DATA;
#1 = VERTEX_POINT ( 'NONE', #357 ) ;
#2 = APPLICATION_PROTOCOL_DEFINITION ( 'international standard', 'config_control_design', 1994, #299 ) ;
#3 = APPROVAL_STATUS ( 'not_yet_approved' ) ;
#4 = APPROVAL_ROLE ( '' ) ;
#5 = PERSON_AND_ORGANIZATION_ROLE ( 'creator' ) ;
#6 = DATE_TIME_ROLE ( 'creation_date' ) ;
#7 = APPROVAL_STATUS ( 'not_yet_approved' ) ;
#8 = APPROVAL_ROLE ( '' ) ;
#9 = PERSON_AND_ORGANIZATION_ROLE ( 'creator' ) ;
#10 = PERSON_AND_ORGANIZATION_ROLE ( 'design_supplier' ) ;
#11 = SECURITY_CLASSIFICATION_LEVEL ( 'unclassified' ) ;
#12 = CARTESIAN_POINT ( 'NONE',  ( 0.0000000000000000000, 0.3049999999999998800, 0.6100000000000001000 ) ) ;
#13 = PLANE ( 'NONE',  #126 ) ;
#14 = CARTESIAN_POINT ( 'NONE',  ( 4.250000000000000000, -0.5050000000000001200, 0.6100000000000001000 ) ) ;
#15 = DIRECTION ( 'NONE',  ( 0.0000000000000000000, 0.0000000000000000000, -1.000000000000000000 ) ) ;
#16 = DIRECTION ( 'NONE',  ( -1.000000000000000000, 0.0000000000000000000, -0.0000000000000000000 ) ) ;
#17 = DIRECTION ( 'NONE',  ( -1.000000000000000000, 0.0000000000000000000, 0.0000000000000000000 ) ) ;
#18 = DIRECTION ( 'NONE',  ( -0.0000000000000000000, 2.239219666937920800E-016, -1.000000000000000000 ) ) ;
#19 = DIRECTION ( 'NONE',  ( 0.0000000000000000000, 0.0000000000000000000, 1.000000000000000000 ) ) ;
#20 = CARTESIAN_POINT ( 'NONE',  ( 4.250000000000000000, 0.3050000000000001600, -0.4099999999999998600 ) ) ;
#21 = CARTESIAN_POINT ( 'NONE',  ( 0.0000000000000000000, -0.5049999999999997800, -0.6099999999999998800 ) ) ;
#22 = AXIS2_PLACEMENT_3D ( 'NONE', #364, #235, #346 ) ;
#23 = VERTEX_POINT ( 'NONE', #358 ) ;
#24 = EDGE_CURVE ( 'NONE', #291, #193, #201, .T. ) ;
#25 = EDGE_CURVE ( 'NONE', #291, #81, #199, .T. ) ;
#26 = EDGE_CURVE ( 'NONE', #61, #301, #200, .T. ) ;
#27 = EDGE_CURVE ( 'NONE', #23, #1, #204, .T. ) ;
#28 = EDGE_CURVE ( 'NONE', #42, #291, #205, .T. ) ;
#29 = EDGE_CURVE ( 'NONE', #193, #290, #206, .T. ) ;
#30 = EDGE_CURVE ( 'NONE', #82, #345, #207, .T. ) ;
#31 = EDGE_CURVE ( 'NONE', #155, #58, #203, .T. ) ;
#32 = EDGE_CURVE ( 'NONE', #81, #59, #209, .T. ) ;
#33 = EDGE_CURVE ( 'NONE', #60, #83, #270, .T. ) ;
#34 = VECTOR ( 'NONE', #69, 39.37007874015748100 ) ;
#35 = LINE ( 'NONE', #72, #39 ) ;
#36 = LINE ( 'NONE', #70, #37 ) ;
#37 = VECTOR ( 'NONE', #71, 39.37007874015748100 ) ;
#38 = LINE ( 'NONE', #365, #41 ) ;
#39 = VECTOR ( 'NONE', #73, 39.37007874015748100 ) ;
#40 = LINE ( 'NONE', #367, #305 ) ;
#41 = VECTOR ( 'NONE', #366, 39.37007874015748100 ) ;
#42 = VERTEX_POINT ( 'NONE', #257 ) ;
#43 = ORIENTED_EDGE ( 'NONE', *, *, #254, .F. ) ;
#44 = ORIENTED_EDGE ( 'NONE', *, *, #251, .T. ) ;
#45 = ORIENTED_EDGE ( 'NONE', *, *, #375, .T. ) ;
#46 = ORIENTED_EDGE ( 'NONE', *, *, #380, .T. ) ;
#47 = ORIENTED_EDGE ( 'NONE', *, *, #373, .T. ) ;
#48 = ORIENTED_EDGE ( 'NONE', *, *, #24, .F. ) ;
#49 = ORIENTED_EDGE ( 'NONE', *, *, #25, .T. ) ;
#50 = ORIENTED_EDGE ( 'NONE', *, *, #379, .T. ) ;
#51 = ORIENTED_EDGE ( 'NONE', *, *, #26, .T. ) ;
#52 = ORIENTED_EDGE ( 'NONE', *, *, #378, .T. ) ;
#53 = ORIENTED_EDGE ( 'NONE', *, *, #27, .T. ) ;
#54 = ORIENTED_EDGE ( 'NONE', *, *, #254, .T. ) ;
#55 = ORIENTED_EDGE ( 'NONE', *, *, #28, .T. ) ;
#56 = ORIENTED_EDGE ( 'NONE', *, *, #24, .T. ) ;
#57 = ORIENTED_EDGE ( 'NONE', *, *, #29, .T. ) ;
#58 = VERTEX_POINT ( 'NONE', #228 ) ;
#59 = VERTEX_POINT ( 'NONE', #229 ) ;
#60 = VERTEX_POINT ( 'NONE', #233 ) ;
#61 = VERTEX_POINT ( 'NONE', #227 ) ;
#62 = ORIENTED_EDGE ( 'NONE', *, *, #309, .T. ) ;
#63 = CARTESIAN_POINT ( 'NONE',  ( 0.0000000000000000000, -0.3050000000000000500, 0.6100000000000001000 ) ) ;
#64 = DIRECTION ( 'NONE',  ( 1.000000000000000000, -0.0000000000000000000, -0.0000000000000000000 ) ) ;
#65 = CARTESIAN_POINT ( 'NONE',  ( 4.250000000000000000, 0.3050000000000001600, -0.6099999999999998800 ) ) ;
#66 = DIRECTION ( 'NONE',  ( 0.0000000000000000000, 1.000000000000000000, 0.0000000000000000000 ) ) ;
#67 = DIRECTION ( 'NONE',  ( 1.000000000000000000, -0.0000000000000000000, -0.0000000000000000000 ) ) ;
#68 = CARTESIAN_POINT ( 'NONE',  ( 4.250000000000000000, -0.3049999999999998300, -0.6099999999999998800 ) ) ;
#69 = DIRECTION ( 'NONE',  ( -1.000000000000000000, 0.0000000000000000000, 0.0000000000000000000 ) ) ;
#70 = CARTESIAN_POINT ( 'NONE',  ( 4.250000000000000000, 0.3049999999999998800, 0.6100000000000001000 ) ) ;
#71 = DIRECTION ( 'NONE',  ( -1.000000000000000000, 0.0000000000000000000, 0.0000000000000000000 ) ) ;
#72 = CARTESIAN_POINT ( 'NONE',  ( 4.250000000000000000, -0.5049999999999997800, -0.6099999999999998800 ) ) ;
#73 = DIRECTION ( 'NONE',  ( -0.0000000000000000000, 2.239219666937920800E-016, -1.000000000000000000 ) ) ;
#74 = DIRECTION ( 'NONE',  ( -1.000000000000000000, 0.0000000000000000000, 0.0000000000000000000 ) ) ;
#75 = DIRECTION ( 'NONE',  ( 0.0000000000000000000, 0.0000000000000000000, 1.000000000000000000 ) ) ;
#76 = CARTESIAN_POINT ( 'NONE',  ( 4.250000000000000000, -0.3049999999999998300, -0.4099999999999998600 ) ) ;
#77 = DIRECTION ( 'NONE',  ( 0.0000000000000000000, 0.0000000000000000000, 1.000000000000000000 ) ) ;
#78 = DIRECTION ( 'NONE',  ( -1.000000000000000000, 0.0000000000000000000, 0.0000000000000000000 ) ) ;
#79 = CARTESIAN_POINT ( 'NONE',  ( 4.250000000000000000, 0.5050000000000000000, 0.4100000000000002000 ) ) ;
#80 = CARTESIAN_POINT ( 'NONE',  ( 4.250000000000000000, 0.3049999999999998800, 0.4100000000000001400 ) ) ;
#81 = VERTEX_POINT ( 'NONE', #261 ) ;
#82 = VERTEX_POINT ( 'NONE', #262 ) ;
#83 = VERTEX_POINT ( 'NONE', #356 ) ;
#84 = ORIENTED_EDGE ( 'NONE', *, *, #252, .F. ) ;
#85 = ORIENTED_EDGE ( 'NONE', *, *, #33, .F. ) ;
#86 = ORIENTED_EDGE ( 'NONE', *, *, #376, .F. ) ;
#87 = ORIENTED_EDGE ( 'NONE', *, *, #29, .F. ) ;
#88 = ORIENTED_EDGE ( 'NONE', *, *, #373, .F. ) ;
#89 = ORIENTED_EDGE ( 'NONE', *, *, #31, .F. ) ;
#90 = ORIENTED_EDGE ( 'NONE', *, *, #377, .F. ) ;
#91 = ORIENTED_EDGE ( 'NONE', *, *, #28, .F. ) ;
#92 = ORIENTED_EDGE ( 'NONE', *, *, #375, .F. ) ;
#93 = ORIENTED_EDGE ( 'NONE', *, *, #32, .F. ) ;
#94 = ORIENTED_EDGE ( 'NONE', *, *, #25, .F. ) ;
#95 = EDGE_LOOP ( 'NONE', ( #167, #168, #169, #170 ) ) ;
#96 = EDGE_LOOP ( 'NONE', ( #171, #84, #85, #86 ) ) ;
#97 = EDGE_LOOP ( 'NONE', ( #159, #160, #161, #162, #163, #164, #165, #166 ) ) ;
#98 = ADVANCED_FACE ( 'NONE', ( #276 ), #184, .F. ) ;
#99 = ADVANCED_FACE ( 'NONE', ( #275 ), #190, .F. ) ;
#100 = ADVANCED_FACE ( 'NONE', ( #274 ), #186, .F. ) ;
#101 = ADVANCED_FACE ( 'NONE', ( #272 ), #182, .T. ) ;
#102 = ADVANCED_FACE ( 'NONE', ( #271 ), #179, .F. ) ;
#103 = ADVANCED_FACE ( 'NONE', ( #277 ), #281, .T. ) ;
#104 = ADVANCED_FACE ( 'NONE', ( #279 ), #283, .T. ) ;
#105 = ADVANCED_FACE ( 'NONE', ( #278 ), #285, .T. ) ;
#106 = ADVANCED_FACE ( 'NONE', ( #273 ), #13, .F. ) ;
#107 = DIMENSIONAL_EXPONENTS ( 1.000000000000000000, 0.0000000000000000000, 0.0000000000000000000, 0.0000000000000000000, 0.0000000000000000000, 0.0000000000000000000, 0.0000000000000000000 ) ;
#108 = DESIGN_CONTEXT ( 'detailed design', #299, 'design' ) ;
#109 = PRODUCT_DEFINITION_SHAPE ( 'NONE', 'NONE',  #131 ) ;
#110 = PRODUCT ( 'BH28AAL', 'BH28AAL', '', ( #297 ) ) ;
#111 = AXIS2_PLACEMENT_3D ( 'NONE', #347, #348, #349 ) ;
#112 = AXIS2_PLACEMENT_3D ( 'NONE', #350, #362, #351 ) ;
#113 = AXIS2_PLACEMENT_3D ( 'NONE', #353, #354, #355 ) ;
#114 = AXIS2_PLACEMENT_3D ( 'NONE', #192, #363, #256 ) ;
#115 = AXIS2_PLACEMENT_3D ( 'NONE', #258, #259, #260 ) ;
#116 = AXIS2_PLACEMENT_3D ( 'NONE', #263, #352, #226 ) ;
#117 = AXIS2_PLACEMENT_3D ( 'NONE', #230, #231, #232 ) ;
#118 = AXIS2_PLACEMENT_3D ( 'NONE', #187, #188, #189 ) ;
#119 = AXIS2_PLACEMENT_3D ( 'NONE', #185, #234, #177 ) ;
#120 = AXIS2_PLACEMENT_3D ( 'NONE', #178, #180, #181 ) ;
#121 = AXIS2_PLACEMENT_3D ( 'NONE', #183, #191, #148 ) ;
#122 = AXIS2_PLACEMENT_3D ( 'NONE', #149, #150, #151 ) ;
#123 = AXIS2_PLACEMENT_3D ( 'NONE', #153, #152, #154 ) ;
#124 = AXIS2_PLACEMENT_3D ( 'NONE', #76, #74, #77 ) ;
#125 = AXIS2_PLACEMENT_3D ( 'NONE', #80, #78, #75 ) ;
#126 = AXIS2_PLACEMENT_3D ( 'NONE', #14, #15, #16 ) ;
#127 =( GEOMETRIC_REPRESENTATION_CONTEXT ( 3 ) GLOBAL_UNCERTAINTY_ASSIGNED_CONTEXT ( ( #265 ) ) GLOBAL_UNIT_ASSIGNED_CONTEXT ( ( #371, #372, #292 ) ) REPRESENTATION_CONTEXT ( 'NONE', 'WORKASPACE' ) );
#128 = AXIS2_PLACEMENT_3D ( 'NONE', #20, #17, #19 ) ;
#129 = AXIS2_PLACEMENT_3D ( 'NONE', #369, #295, #296 ) ;
#130 = CC_DESIGN_PERSON_AND_ORGANIZATION_ASSIGNMENT ( #310, #298, ( #110 ) ) ;
#131 = PRODUCT_DEFINITION ( 'UNKNOWN', '', #136, #108 ) ;
#132 = APPROVAL ( #3, 'UNSPECIFIED' ) ;
#133 = CC_DESIGN_APPROVAL ( #132, ( #131 ) ) ;
#134 = CC_DESIGN_PERSON_AND_ORGANIZATION_ASSIGNMENT ( #318, #5, ( #131 ) ) ;
#135 = CC_DESIGN_DATE_AND_TIME_ASSIGNMENT ( #322, #6, ( #131 ) ) ;
#136 = PRODUCT_DEFINITION_FORMATION_WITH_SPECIFIED_SOURCE ( 'ANY', '', #110, .NOT_KNOWN. ) ;
#137 = APPROVAL ( #7, 'UNSPECIFIED' ) ;
#138 = CC_DESIGN_APPROVAL ( #137, ( #136 ) ) ;
#139 = CC_DESIGN_PERSON_AND_ORGANIZATION_ASSIGNMENT ( #330, #9, ( #136 ) ) ;
#140 = CC_DESIGN_PERSON_AND_ORGANIZATION_ASSIGNMENT ( #331, #10, ( #136 ) ) ;
#141 = SECURITY_CLASSIFICATION ( '', '', #11 ) ;
#142 = CC_DESIGN_PERSON_AND_ORGANIZATION_ASSIGNMENT ( #332, #266, ( #141 ) ) ;
#143 = CC_DESIGN_DATE_AND_TIME_ASSIGNMENT ( #336, #267, ( #141 ) ) ;
#144 = APPROVAL ( #268, 'UNSPECIFIED' ) ;
#145 = CC_DESIGN_APPROVAL ( #144, ( #141 ) ) ;
#146 = CC_DESIGN_SECURITY_CLASSIFICATION ( #141, ( #136 ) ) ;
#147 = PRODUCT_RELATED_PRODUCT_CATEGORY ( 'detail', '', ( #110 ) ) ;
#148 = DIRECTION ( 'NONE',  ( -0.0000000000000000000, 0.0000000000000000000, -1.000000000000000000 ) ) ;
#149 = CARTESIAN_POINT ( 'NONE',  ( 0.0000000000000000000, 0.0000000000000000000, 0.0000000000000000000 ) ) ;
#150 = DIRECTION ( 'NONE',  ( 1.000000000000000000, 0.0000000000000000000, -0.0000000000000000000 ) ) ;
#151 = DIRECTION ( 'NONE',  ( -0.0000000000000000000, 0.0000000000000000000, -1.000000000000000000 ) ) ;
#152 = DIRECTION ( 'NONE',  ( -1.000000000000000000, 0.0000000000000000000, 0.0000000000000000000 ) ) ;
#153 = CARTESIAN_POINT ( 'NONE',  ( 4.250000000000000000, -0.3050000000000000500, 0.4100000000000001400 ) ) ;
#154 = DIRECTION ( 'NONE',  ( 0.0000000000000000000, 0.0000000000000000000, 1.000000000000000000 ) ) ;
#155 = VERTEX_POINT ( 'NONE', #12 ) ;
#156 = EDGE_LOOP ( 'NONE', ( #91, #92, #93, #94 ) ) ;
#157 = EDGE_LOOP ( 'NONE', ( #87, #88, #89, #90 ) ) ;
#158 = EDGE_LOOP ( 'NONE', ( #288, #62, #44, #172 ) ) ;
#159 = ORIENTED_EDGE ( 'NONE', *, *, #251, .F. ) ;
#160 = ORIENTED_EDGE ( 'NONE', *, *, #30, .T. ) ;
#161 = ORIENTED_EDGE ( 'NONE', *, *, #255, .F. ) ;
#162 = ORIENTED_EDGE ( 'NONE', *, *, #31, .T. ) ;
#163 = ORIENTED_EDGE ( 'NONE', *, *, #380, .F. ) ;
#164 = ORIENTED_EDGE ( 'NONE', *, *, #32, .T. ) ;
#165 = ORIENTED_EDGE ( 'NONE', *, *, #374, .F. ) ;
#166 = ORIENTED_EDGE ( 'NONE', *, *, #33, .T. ) ;
#167 = ORIENTED_EDGE ( 'NONE', *, *, #26, .F. ) ;
#168 = ORIENTED_EDGE ( 'NONE', *, *, #253, .F. ) ;
#169 = ORIENTED_EDGE ( 'NONE', *, *, #30, .F. ) ;
#170 = ORIENTED_EDGE ( 'NONE', *, *, #309, .F. ) ;
#171 = ORIENTED_EDGE ( 'NONE', *, *, #27, .F. ) ;
#172 = ORIENTED_EDGE ( 'NONE', *, *, #252, .T. ) ;
#173 = ADVANCED_FACE ( 'NONE', ( #282 ), #175, .T. ) ;
#174 = CLOSED_SHELL ( 'NONE', ( #106, #98, #99, #100, #101, #102, #103, #104, #105, #173 ) ) ;
#175 = CYLINDRICAL_SURFACE ( 'NONE', #128, 0.2000000000000000100 ) ;
#176 = ORIENTED_EDGE ( 'NONE', *, *, #376, .T. ) ;
#177 = DIRECTION ( 'NONE',  ( 1.000000000000000000, 0.0000000000000000000, -0.0000000000000000000 ) ) ;
#178 = CARTESIAN_POINT ( 'NONE',  ( 4.250000000000000000, 0.5050000000000002300, -0.6099999999999998800 ) ) ;
#179 = PLANE ( 'NONE',  #122 ) ;
#180 = DIRECTION ( 'NONE',  ( 0.0000000000000000000, -1.000000000000000000, -2.239219666937920800E-016 ) ) ;
#181 = DIRECTION ( 'NONE',  ( 0.0000000000000000000, 2.239219666937920800E-016, -1.000000000000000000 ) ) ;
#182 = PLANE ( 'NONE',  #121 ) ;
#183 = CARTESIAN_POINT ( 'NONE',  ( 4.250000000000000000, 0.0000000000000000000, 0.0000000000000000000 ) ) ;
#184 = PLANE ( 'NONE',  #118 ) ;
#185 = CARTESIAN_POINT ( 'NONE',  ( 4.250000000000000000, -0.5049999999999997800, -0.6099999999999998800 ) ) ;
#186 = PLANE ( 'NONE',  #120 ) ;
#187 = CARTESIAN_POINT ( 'NONE',  ( 4.250000000000000000, -0.5049999999999997800, -0.6099999999999998800 ) ) ;
#188 = DIRECTION ( 'NONE',  ( -0.0000000000000000000, 1.000000000000000000, 2.239219666937920800E-016 ) ) ;
#189 = DIRECTION ( 'NONE',  ( 0.0000000000000000000, -2.239219666937920800E-016, 1.000000000000000000 ) ) ;
#190 = PLANE ( 'NONE',  #119 ) ;
#191 = DIRECTION ( 'NONE',  ( 1.000000000000000000, 0.0000000000000000000, -0.0000000000000000000 ) ) ;
#192 = CARTESIAN_POINT ( 'NONE',  ( 0.0000000000000000000, -0.3050000000000000500, 0.4100000000000001400 ) ) ;
#193 = VERTEX_POINT ( 'NONE', #79 ) ;
#194 = EDGE_LOOP ( 'NONE', ( #303, #302, #304, #287 ) ) ;
#195 = EDGE_LOOP ( 'NONE', ( #50, #51, #52, #53, #54, #55, #56, #57 ) ) ;
#196 = EDGE_LOOP ( 'NONE', ( #46, #47, #48, #49 ) ) ;
#197 = EDGE_LOOP ( 'NONE', ( #43, #176, #289, #45 ) ) ;
#198 = VECTOR ( 'NONE', #361, 39.37007874015748100 ) ;
#199 = LINE ( 'NONE', #360, #198 ) ;
#200 = CIRCLE ( 'NONE', #22, 0.2000000000000000100 ) ;
#201 = LINE ( 'NONE', #300, #202 ) ;
#202 = VECTOR ( 'NONE', #359, 39.37007874015748100 ) ;
#203 = CIRCLE ( 'NONE', #115, 0.2000000000000000100 ) ;
#204 = CIRCLE ( 'NONE', #111, 0.2000000000000000400 ) ;
#205 = CIRCLE ( 'NONE', #112, 0.2000000000000000400 ) ;
#206 = CIRCLE ( 'NONE', #113, 0.2000000000000000100 ) ;
#207 = CIRCLE ( 'NONE', #114, 0.2000000000000000100 ) ;
#208 = ORGANIZATION ( 'UNSPECIFIED', 'UNSPECIFIED', '' ) ;
#209 = CIRCLE ( 'NONE', #116, 0.2000000000000000400 ) ;
#210 = VECTOR ( 'NONE', #18, 39.37007874015748100 ) ;
#211 = LINE ( 'NONE', #240, #215 ) ;
#212 = LINE ( 'NONE', #238, #213 ) ;
#213 = VECTOR ( 'NONE', #239, 39.37007874015748100 ) ;
#214 = LINE ( 'NONE', #248, #219 ) ;
#215 = VECTOR ( 'NONE', #242, 39.37007874015748100 ) ;
#216 = LINE ( 'NONE', #244, #220 ) ;
#217 = LINE ( 'NONE', #236, #218 ) ;
#218 = VECTOR ( 'NONE', #243, 39.37007874015748100 ) ;
#219 = VECTOR ( 'NONE', #66, 39.37007874015748100 ) ;
#220 = VECTOR ( 'NONE', #246, 39.37007874015748100 ) ;
#221 = LINE ( 'NONE', #241, #222 ) ;
#222 = VECTOR ( 'NONE', #250, 39.37007874015748100 ) ;
#223 = VECTOR ( 'NONE', #67, 39.37007874015748100 ) ;
#224 = LINE ( 'NONE', #245, #225 ) ;
#225 = VECTOR ( 'NONE', #64, 39.37007874015748100 ) ;
#226 = DIRECTION ( 'NONE',  ( 0.0000000000000000000, 1.707404996040164200E-015, -1.000000000000000000 ) ) ;
#227 = CARTESIAN_POINT ( 'NONE',  ( 4.250000000000000000, -0.3050000000000000500, 0.6100000000000001000 ) ) ;
#228 = CARTESIAN_POINT ( 'NONE',  ( 0.0000000000000000000, 0.5050000000000000000, 0.4100000000000002000 ) ) ;
#229 = CARTESIAN_POINT ( 'NONE',  ( 0.0000000000000000000, 0.3050000000000001600, -0.6099999999999998800 ) ) ;
#230 = CARTESIAN_POINT ( 'NONE',  ( 0.0000000000000000000, -0.3049999999999998300, -0.4099999999999998600 ) ) ;
#231 = DIRECTION ( 'NONE',  ( -1.000000000000000000, -0.0000000000000000000, 0.0000000000000000000 ) ) ;
#232 = DIRECTION ( 'NONE',  ( 0.0000000000000000000, 0.0000000000000000000, -1.000000000000000000 ) ) ;
#233 = CARTESIAN_POINT ( 'NONE',  ( 0.0000000000000000000, -0.3049999999999998300, -0.6099999999999998800 ) ) ;
#234 = DIRECTION ( 'NONE',  ( 0.0000000000000000000, 0.0000000000000000000, 1.000000000000000000 ) ) ;
#235 = DIRECTION ( 'NONE',  ( 1.000000000000000000, 0.0000000000000000000, -0.0000000000000000000 ) ) ;
#236 = CARTESIAN_POINT ( 'NONE',  ( 4.250000000000000000, -0.5049999999999997800, -0.6099999999999998800 ) ) ;
#237 = CARTESIAN_POINT ( 'NONE',  ( 4.250000000000000000, 0.5050000000000001200, -0.4099999999999998100 ) ) ;
#238 = CARTESIAN_POINT ( 'NONE',  ( 4.250000000000000000, -0.5049999999999998900, -0.4099999999999999200 ) ) ;
#239 = DIRECTION ( 'NONE',  ( 1.000000000000000000, -0.0000000000000000000, -0.0000000000000000000 ) ) ;
#240 = CARTESIAN_POINT ( 'NONE',  ( 4.250000000000000000, -0.3050000000000000500, 0.6100000000000001000 ) ) ;
#241 = CARTESIAN_POINT ( 'NONE',  ( 4.250000000000000000, -0.5050000000000000000, 0.4100000000000000900 ) ) ;
#242 = DIRECTION ( 'NONE',  ( 1.000000000000000000, -0.0000000000000000000, -0.0000000000000000000 ) ) ;
#243 = DIRECTION ( 'NONE',  ( 0.0000000000000000000, 1.000000000000000000, 0.0000000000000000000 ) ) ;
#244 = CARTESIAN_POINT ( 'NONE',  ( 0.0000000000000000000, -0.5050000000000001200, 0.6100000000000001000 ) ) ;
#245 = CARTESIAN_POINT ( 'NONE',  ( 4.250000000000000000, 0.5050000000000000000, 0.4100000000000002000 ) ) ;
#246 = DIRECTION ( 'NONE',  ( -0.0000000000000000000, -1.000000000000000000, -0.0000000000000000000 ) ) ;
#247 = CARTESIAN_POINT ( 'NONE',  ( 4.250000000000000000, 0.3049999999999998800, 0.6100000000000001000 ) ) ;
#248 = CARTESIAN_POINT ( 'NONE',  ( 0.0000000000000000000, -0.5049999999999997800, -0.6099999999999998800 ) ) ;
#249 = CARTESIAN_POINT ( 'NONE',  ( 4.250000000000000000, -0.5050000000000000000, 0.4100000000000000900 ) ) ;
#250 = DIRECTION ( 'NONE',  ( -1.000000000000000000, 0.0000000000000000000, 0.0000000000000000000 ) ) ;
#251 = EDGE_CURVE ( 'NONE', #82, #83, #280, .T. ) ;
#252 = EDGE_CURVE ( 'NONE', #83, #23, #212, .T. ) ;
#253 = EDGE_CURVE ( 'NONE', #345, #61, #211, .T. ) ;
#254 = EDGE_CURVE ( 'NONE', #1, #42, #217, .T. ) ;
#255 = EDGE_CURVE ( 'NONE', #155, #345, #216, .T. ) ;
#256 = DIRECTION ( 'NONE',  ( 0.0000000000000000000, 8.537024980200821800E-016, -1.000000000000000000 ) ) ;
#257 = CARTESIAN_POINT ( 'NONE',  ( 4.250000000000000000, 0.3050000000000001600, -0.6099999999999998800 ) ) ;
#258 = CARTESIAN_POINT ( 'NONE',  ( 0.0000000000000000000, 0.3049999999999998800, 0.4100000000000001400 ) ) ;
#259 = DIRECTION ( 'NONE',  ( -1.000000000000000000, -0.0000000000000000000, 0.0000000000000000000 ) ) ;
#260 = DIRECTION ( 'NONE',  ( 0.0000000000000000000, -8.537024980200821800E-016, -1.000000000000000000 ) ) ;
#261 = CARTESIAN_POINT ( 'NONE',  ( 0.0000000000000000000, 0.5050000000000001200, -0.4099999999999998100 ) ) ;
#262 = CARTESIAN_POINT ( 'NONE',  ( 0.0000000000000000000, -0.5050000000000000000, 0.4100000000000000900 ) ) ;
#263 = CARTESIAN_POINT ( 'NONE',  ( 0.0000000000000000000, 0.3050000000000001600, -0.4099999999999998600 ) ) ;
#264 = ADVANCED_BREP_SHAPE_REPRESENTATION ( 'BH28AAL', ( #344, #129 ), #127 ) ;
#265 = UNCERTAINTY_MEASURE_WITH_UNIT (LENGTH_MEASURE( 1.000000000000000100E-005 ), #371, 'distance_accuracy_value', 'NONE');
#266 = PERSON_AND_ORGANIZATION_ROLE ( 'classification_officer' ) ;
#267 = DATE_TIME_ROLE ( 'classification_date' ) ;
#268 = APPROVAL_STATUS ( 'not_yet_approved' ) ;
#269 = APPROVAL_ROLE ( '' ) ;
#270 = CIRCLE ( 'NONE', #117, 0.2000000000000000400 ) ;
#271 = FACE_OUTER_BOUND ( 'NONE', #97, .T. ) ;
#272 = FACE_OUTER_BOUND ( 'NONE', #195, .T. ) ;
#273 = FACE_OUTER_BOUND ( 'NONE', #194, .T. ) ;
#274 = FACE_OUTER_BOUND ( 'NONE', #196, .T. ) ;
#275 = FACE_OUTER_BOUND ( 'NONE', #197, .T. ) ;
#276 = FACE_OUTER_BOUND ( 'NONE', #158, .T. ) ;
#277 = FACE_OUTER_BOUND ( 'NONE', #95, .T. ) ;
#278 = FACE_OUTER_BOUND ( 'NONE', #157, .T. ) ;
#279 = FACE_OUTER_BOUND ( 'NONE', #96, .T. ) ;
#280 = LINE ( 'NONE', #21, #210 ) ;
#281 = CYLINDRICAL_SURFACE ( 'NONE', #123, 0.2000000000000000400 ) ;
#282 = FACE_OUTER_BOUND ( 'NONE', #156, .T. ) ;
#283 = CYLINDRICAL_SURFACE ( 'NONE', #124, 0.2000000000000000100 ) ;
#284 = LINE ( 'NONE', #65, #223 ) ;
#285 = CYLINDRICAL_SURFACE ( 'NONE', #125, 0.2000000000000000400 ) ;
#286 = LINE ( 'NONE', #68, #34 ) ;
#287 = ORIENTED_EDGE ( 'NONE', *, *, #377, .T. ) ;
#288 = ORIENTED_EDGE ( 'NONE', *, *, #378, .F. ) ;
#289 = ORIENTED_EDGE ( 'NONE', *, *, #374, .T. ) ;
#290 = VERTEX_POINT ( 'NONE', #247 ) ;
#291 = VERTEX_POINT ( 'NONE', #237 ) ;
#292 =( NAMED_UNIT ( * ) SI_UNIT ( $, .STERADIAN. ) SOLID_ANGLE_UNIT ( ) );
#293 = APPLICATION_PROTOCOL_DEFINITION ( 'international standard', 'config_control_design', 1994, #294 ) ;
#294 = APPLICATION_CONTEXT ( 'configuration controlled 3d designs of mechanical parts and assemblies' ) ;
#295 = DIRECTION ( 'NONE',  ( 0.0000000000000000000, 0.0000000000000000000, 1.000000000000000000 ) ) ;
#296 = DIRECTION ( 'NONE',  ( 1.000000000000000000, 0.0000000000000000000, 0.0000000000000000000 ) ) ;
#297 = MECHANICAL_CONTEXT ( 'NONE', #294, 'mechanical' ) ;
#298 = PERSON_AND_ORGANIZATION_ROLE ( 'design_owner' ) ;
#299 = APPLICATION_CONTEXT ( 'configuration controlled 3d designs of mechanical parts and assemblies' ) ;
#300 = CARTESIAN_POINT ( 'NONE',  ( 4.250000000000000000, 0.5050000000000002300, -0.6099999999999998800 ) ) ;
#301 = VERTEX_POINT ( 'NONE', #249 ) ;
#302 = ORIENTED_EDGE ( 'NONE', *, *, #253, .T. ) ;
#303 = ORIENTED_EDGE ( 'NONE', *, *, #255, .T. ) ;
#304 = ORIENTED_EDGE ( 'NONE', *, *, #379, .F. ) ;
#305 = VECTOR ( 'NONE', #368, 39.37007874015748100 ) ;
#306 = SHAPE_DEFINITION_REPRESENTATION ( #109, #264 ) ;
#307 = LENGTH_MEASURE_WITH_UNIT ( LENGTH_MEASURE( 0.02539999999999999900 ), #370 );
#308 = PERSON ( 'UNSPECIFIED', 'UNSPECIFIED', 'UNSPECIFIED', ('UNSPECIFIED'), ('UNSPECIFIED'), ('UNSPECIFIED') ) ;
#309 = EDGE_CURVE ( 'NONE', #301, #82, #221, .T. ) ;
#310 = PERSON_AND_ORGANIZATION ( #308, #208 ) ;
#311 = PERSON_AND_ORGANIZATION ( #308, #208 ) ;
#312 = APPROVAL_PERSON_ORGANIZATION ( #311, #132, #4 ) ;
#313 = COORDINATED_UNIVERSAL_TIME_OFFSET ( 5, 0, .BEHIND. ) ;
#314 = LOCAL_TIME ( 14, 19, 53.00000000000000000, #313 ) ;
#315 = CALENDAR_DATE ( 2014, 22, 8 ) ;
#316 = DATE_AND_TIME ( #315, #314 ) ;
#317 = APPROVAL_DATE_TIME ( #316, #132 ) ;
#318 = PERSON_AND_ORGANIZATION ( #308, #208 ) ;
#319 = COORDINATED_UNIVERSAL_TIME_OFFSET ( 5, 0, .BEHIND. ) ;
#320 = LOCAL_TIME ( 14, 19, 53.00000000000000000, #319 ) ;
#321 = CALENDAR_DATE ( 2014, 22, 8 ) ;
#322 = DATE_AND_TIME ( #321, #320 ) ;
#323 = PERSON_AND_ORGANIZATION ( #308, #208 ) ;
#324 = APPROVAL_PERSON_ORGANIZATION ( #323, #137, #8 ) ;
#325 = COORDINATED_UNIVERSAL_TIME_OFFSET ( 5, 0, .BEHIND. ) ;
#326 = LOCAL_TIME ( 14, 19, 53.00000000000000000, #325 ) ;
#327 = CALENDAR_DATE ( 2014, 22, 8 ) ;
#328 = DATE_AND_TIME ( #327, #326 ) ;
#329 = APPROVAL_DATE_TIME ( #328, #137 ) ;
#330 = PERSON_AND_ORGANIZATION ( #308, #208 ) ;
#331 = PERSON_AND_ORGANIZATION ( #308, #208 ) ;
#332 = PERSON_AND_ORGANIZATION ( #308, #208 ) ;
#333 = COORDINATED_UNIVERSAL_TIME_OFFSET ( 5, 0, .BEHIND. ) ;
#334 = LOCAL_TIME ( 14, 19, 53.00000000000000000, #333 ) ;
#335 = CALENDAR_DATE ( 2014, 22, 8 ) ;
#336 = DATE_AND_TIME ( #335, #334 ) ;
#337 = PERSON_AND_ORGANIZATION ( #308, #208 ) ;
#338 = APPROVAL_PERSON_ORGANIZATION ( #337, #144, #269 ) ;
#339 = COORDINATED_UNIVERSAL_TIME_OFFSET ( 5, 0, .BEHIND. ) ;
#340 = LOCAL_TIME ( 14, 19, 53.00000000000000000, #339 ) ;
#341 = CALENDAR_DATE ( 2014, 22, 8 ) ;
#342 = DATE_AND_TIME ( #341, #340 ) ;
#343 = APPROVAL_DATE_TIME ( #342, #144 ) ;
#344 = MANIFOLD_SOLID_BREP ( 'Fillet1', #174 ) ;
#345 = VERTEX_POINT ( 'NONE', #63 ) ;
#346 = DIRECTION ( 'NONE',  ( 0.0000000000000000000, 0.0000000000000000000, -1.000000000000000000 ) ) ;
#347 = CARTESIAN_POINT ( 'NONE',  ( 4.250000000000000000, -0.3049999999999998300, -0.4099999999999998600 ) ) ;
#348 = DIRECTION ( 'NONE',  ( 1.000000000000000000, 0.0000000000000000000, -0.0000000000000000000 ) ) ;
#349 = DIRECTION ( 'NONE',  ( 0.0000000000000000000, 0.0000000000000000000, -1.000000000000000000 ) ) ;
#350 = CARTESIAN_POINT ( 'NONE',  ( 4.250000000000000000, 0.3050000000000001600, -0.4099999999999998600 ) ) ;
#351 = DIRECTION ( 'NONE',  ( 0.0000000000000000000, 0.0000000000000000000, -1.000000000000000000 ) ) ;
#352 = DIRECTION ( 'NONE',  ( -1.000000000000000000, -0.0000000000000000000, 0.0000000000000000000 ) ) ;
#353 = CARTESIAN_POINT ( 'NONE',  ( 4.250000000000000000, 0.3049999999999998800, 0.4100000000000001400 ) ) ;
#354 = DIRECTION ( 'NONE',  ( 1.000000000000000000, 0.0000000000000000000, -0.0000000000000000000 ) ) ;
#355 = DIRECTION ( 'NONE',  ( 0.0000000000000000000, 0.0000000000000000000, -1.000000000000000000 ) ) ;
#356 = CARTESIAN_POINT ( 'NONE',  ( 0.0000000000000000000, -0.5049999999999998900, -0.4099999999999999200 ) ) ;
#357 = CARTESIAN_POINT ( 'NONE',  ( 4.250000000000000000, -0.3049999999999998300, -0.6099999999999998800 ) ) ;
#358 = CARTESIAN_POINT ( 'NONE',  ( 4.250000000000000000, -0.5049999999999998900, -0.4099999999999999200 ) ) ;
#359 = DIRECTION ( 'NONE',  ( 0.0000000000000000000, -2.239219666937920800E-016, 1.000000000000000000 ) ) ;
#360 = CARTESIAN_POINT ( 'NONE',  ( 4.250000000000000000, 0.5050000000000001200, -0.4099999999999998100 ) ) ;
#361 = DIRECTION ( 'NONE',  ( -1.000000000000000000, 0.0000000000000000000, 0.0000000000000000000 ) ) ;
#362 = DIRECTION ( 'NONE',  ( 1.000000000000000000, 0.0000000000000000000, -0.0000000000000000000 ) ) ;
#363 = DIRECTION ( 'NONE',  ( -1.000000000000000000, -0.0000000000000000000, 0.0000000000000000000 ) ) ;
#364 = CARTESIAN_POINT ( 'NONE',  ( 4.250000000000000000, -0.3050000000000000500, 0.4100000000000001400 ) ) ;
#365 = CARTESIAN_POINT ( 'NONE',  ( 4.250000000000000000, -0.5050000000000001200, 0.6100000000000001000 ) ) ;
#366 = DIRECTION ( 'NONE',  ( -0.0000000000000000000, -1.000000000000000000, -0.0000000000000000000 ) ) ;
#367 = CARTESIAN_POINT ( 'NONE',  ( 0.0000000000000000000, 0.5050000000000002300, -0.6099999999999998800 ) ) ;
#368 = DIRECTION ( 'NONE',  ( 0.0000000000000000000, -2.239219666937920800E-016, 1.000000000000000000 ) ) ;
#369 = CARTESIAN_POINT ( 'NONE',  ( 0.0000000000000000000, 0.0000000000000000000, 0.0000000000000000000 ) ) ;
#370 =( LENGTH_UNIT ( ) NAMED_UNIT ( * ) SI_UNIT ( $, .METRE. ) );
#371 =( CONVERSION_BASED_UNIT ( 'INCH', #307 ) LENGTH_UNIT ( ) NAMED_UNIT ( #107 ) );
#372 =( NAMED_UNIT ( * ) PLANE_ANGLE_UNIT ( ) SI_UNIT ( $, .RADIAN. ) );
#373 = EDGE_CURVE ( 'NONE', #58, #193, #224, .T. ) ;
#374 = EDGE_CURVE ( 'NONE', #60, #59, #214, .T. ) ;
#375 = EDGE_CURVE ( 'NONE', #59, #42, #284, .T. ) ;
#376 = EDGE_CURVE ( 'NONE', #1, #60, #286, .T. ) ;
#377 = EDGE_CURVE ( 'NONE', #290, #155, #36, .T. ) ;
#378 = EDGE_CURVE ( 'NONE', #301, #23, #35, .T. ) ;
#379 = EDGE_CURVE ( 'NONE', #290, #61, #38, .T. ) ;
#380 = EDGE_CURVE ( 'NONE', #81, #58, #40, .T. ) ;
ENDSEC;
END-ISO-10303-21;
