ISO-10303-21;
HEADER;
FILE_DESCRIPTION (( 'STEP AP203' ),
    '1' );
FILE_NAME ('BH28AAW.STEP',
    '2014-08-22T18:20:19',
    ( 'Intern' ),
    ( '' ),
    'SwSTEP 2.0',
    'SolidWorks 2012',
    '' );
FILE_SCHEMA (( 'CONFIG_CONTROL_DESIGN' ));
ENDSEC;

DATA;
#1 =( NAMED_UNIT ( * ) PLANE_ANGLE_UNIT ( ) SI_UNIT ( $, .RADIAN. ) );
#2 =( NAMED_UNIT ( * ) SI_UNIT ( $, .STERADIAN. ) SOLID_ANGLE_UNIT ( ) );
#3 = APPLICATION_PROTOCOL_DEFINITION ( 'international standard', 'config_control_design', 1994, #4 ) ;
#4 = APPLICATION_CONTEXT ( 'configuration controlled 3d designs of mechanical parts and assemblies' ) ;
#5 = DIRECTION ( 'NONE',  ( 0.0000000000000000000, 0.0000000000000000000, 1.000000000000000000 ) ) ;
#6 = DIRECTION ( 'NONE',  ( 1.000000000000000000, 0.0000000000000000000, 0.0000000000000000000 ) ) ;
#7 = MECHANICAL_CONTEXT ( 'NONE', #4, 'mechanical' ) ;
#8 = PERSON_AND_ORGANIZATION_ROLE ( 'design_owner' ) ;
#9 = ORIENTED_EDGE ( 'NONE', *, *, #374, .T. ) ;
#10 = EDGE_LOOP ( 'NONE', ( #305, #303, #304, #105 ) ) ;
#11 = EDGE_LOOP ( 'NONE', ( #191, #192, #193, #194 ) ) ;
#12 = SECURITY_CLASSIFICATION_LEVEL ( 'unclassified' ) ;
#13 = PERSON_AND_ORGANIZATION_ROLE ( 'classification_officer' ) ;
#14 = DATE_TIME_ROLE ( 'classification_date' ) ;
#15 = APPROVAL_STATUS ( 'not_yet_approved' ) ;
#16 = APPROVAL_ROLE ( '' ) ;
#17 = PERSON_AND_ORGANIZATION ( #353, #49 ) ;
#18 = AXIS2_PLACEMENT_3D ( 'NONE', #217, #370, #141 ) ;
#19 = VERTEX_POINT ( 'NONE', #369 ) ;
#20 = ORIENTED_EDGE ( 'NONE', *, *, #222, .T. ) ;
#21 = EDGE_CURVE ( 'NONE', #129, #344, #293, .T. ) ;
#22 = EDGE_CURVE ( 'NONE', #129, #125, #291, .T. ) ;
#23 = EDGE_CURVE ( 'NONE', #126, #371, #292, .T. ) ;
#24 = EDGE_CURVE ( 'NONE', #128, #345, #297, .T. ) ;
#25 = EDGE_CURVE ( 'NONE', #130, #129, #298, .T. ) ;
#26 = EDGE_CURVE ( 'NONE', #344, #131, #299, .T. ) ;
#27 = EDGE_CURVE ( 'NONE', #372, #19, #300, .T. ) ;
#28 = EDGE_CURVE ( 'NONE', #343, #102, #295, .T. ) ;
#29 = EDGE_CURVE ( 'NONE', #125, #132, #302, .T. ) ;
#30 = EDGE_CURVE ( 'NONE', #124, #127, #270, .T. ) ;
#31 = APPLICATION_CONTEXT ( 'configuration controlled 3d designs of mechanical parts and assemblies' ) ;
#32 = APPLICATION_PROTOCOL_DEFINITION ( 'international standard', 'config_control_design', 1994, #31 ) ;
#33 = APPROVAL_STATUS ( 'not_yet_approved' ) ;
#34 = APPROVAL_ROLE ( '' ) ;
#35 = PERSON_AND_ORGANIZATION_ROLE ( 'creator' ) ;
#36 = DATE_TIME_ROLE ( 'creation_date' ) ;
#37 = APPROVAL_STATUS ( 'not_yet_approved' ) ;
#38 = APPROVAL_ROLE ( '' ) ;
#39 = PERSON_AND_ORGANIZATION_ROLE ( 'creator' ) ;
#40 = PERSON_AND_ORGANIZATION_ROLE ( 'design_supplier' ) ;
#41 = VECTOR ( 'NONE', #79, 39.37007874015748100 ) ;
#42 = LINE ( 'NONE', #82, #45 ) ;
#43 = LINE ( 'NONE', #80, #44 ) ;
#44 = VECTOR ( 'NONE', #81, 39.37007874015748100 ) ;
#45 = VECTOR ( 'NONE', #346, 39.37007874015748100 ) ;
#46 = LINE ( 'NONE', #348, #50 ) ;
#47 = LINE ( 'NONE', #73, #48 ) ;
#48 = VECTOR ( 'NONE', #347, 39.37007874015748100 ) ;
#49 = ORGANIZATION ( 'UNSPECIFIED', 'UNSPECIFIED', '' ) ;
#50 = VECTOR ( 'NONE', #349, 39.37007874015748100 ) ;
#51 = SHAPE_DEFINITION_REPRESENTATION ( #101, #268 ) ;
#52 = ADVANCED_FACE ( 'NONE', ( #301 ), #274, .T. ) ;
#53 = ADVANCED_FACE ( 'NONE', ( #271 ), #209, .F. ) ;
#54 = ADVANCED_FACE ( 'NONE', ( #272 ), #210, .F. ) ;
#55 = ADVANCED_FACE ( 'NONE', ( #219 ), #233, .F. ) ;
#56 = ADVANCED_FACE ( 'NONE', ( #275 ), #230, .T. ) ;
#57 = ADVANCED_FACE ( 'NONE', ( #276 ), #171, .F. ) ;
#58 = ADVANCED_FACE ( 'NONE', ( #277 ), #281, .T. ) ;
#59 = ADVANCED_FACE ( 'NONE', ( #279 ), #283, .T. ) ;
#60 = ADVANCED_FACE ( 'NONE', ( #278 ), #148, .F. ) ;
#61 = DIMENSIONAL_EXPONENTS ( 1.000000000000000000, 0.0000000000000000000, 0.0000000000000000000, 0.0000000000000000000, 0.0000000000000000000, 0.0000000000000000000, 0.0000000000000000000 ) ;
#62 = CARTESIAN_POINT ( 'NONE',  ( 4.250000000000000000, -0.5450000000000000400, -0.4099999999999999800 ) ) ;
#63 = CARTESIAN_POINT ( 'NONE',  ( 4.250000000000000000, 0.3450000000000000800, -0.6100000000000001000 ) ) ;
#64 = CARTESIAN_POINT ( 'NONE',  ( 0.0000000000000000000, 0.3450000000000000800, -0.6100000000000001000 ) ) ;
#65 = DIRECTION ( 'NONE',  ( 0.0000000000000000000, 0.0000000000000000000, 1.000000000000000000 ) ) ;
#66 = CARTESIAN_POINT ( 'NONE',  ( 4.250000000000000000, 0.3449999999999999200, 0.4099999999999998600 ) ) ;
#67 = DIRECTION ( 'NONE',  ( -1.000000000000000000, 0.0000000000000000000, 0.0000000000000000000 ) ) ;
#68 = DIRECTION ( 'NONE',  ( -0.0000000000000000000, -1.000000000000000000, -0.0000000000000000000 ) ) ;
#69 = CARTESIAN_POINT ( 'NONE',  ( 4.250000000000000000, -0.5450000000000001500, 0.6099999999999998800 ) ) ;
#70 = CARTESIAN_POINT ( 'NONE',  ( 4.250000000000000000, 0.5450000000000000400, 0.4099999999999998600 ) ) ;
#71 = DIRECTION ( 'NONE',  ( 1.000000000000000000, -0.0000000000000000000, -0.0000000000000000000 ) ) ;
#72 = CARTESIAN_POINT ( 'NONE',  ( 0.0000000000000000000, -0.5450000000000001500, 0.4099999999999998600 ) ) ;
#73 = CARTESIAN_POINT ( 'NONE',  ( 4.250000000000000000, 0.3449999999999999200, 0.6099999999999998800 ) ) ;
#74 = DIRECTION ( 'NONE',  ( -1.000000000000000000, 0.0000000000000000000, 0.0000000000000000000 ) ) ;
#75 = CARTESIAN_POINT ( 'NONE',  ( 4.250000000000000000, -0.3450000000000000300, -0.6100000000000001000 ) ) ;
#76 = CARTESIAN_POINT ( 'NONE',  ( 4.250000000000000000, 0.5450000000000000400, 0.4099999999999998600 ) ) ;
#77 = DIRECTION ( 'NONE',  ( 1.000000000000000000, -0.0000000000000000000, -0.0000000000000000000 ) ) ;
#78 = CARTESIAN_POINT ( 'NONE',  ( 0.0000000000000000000, -0.5450000000000000400, -0.6100000000000001000 ) ) ;
#79 = DIRECTION ( 'NONE',  ( 0.0000000000000000000, 1.000000000000000000, 0.0000000000000000000 ) ) ;
#80 = CARTESIAN_POINT ( 'NONE',  ( 0.0000000000000000000, 0.5450000000000000400, -0.6100000000000001000 ) ) ;
#81 = DIRECTION ( 'NONE',  ( 0.0000000000000000000, -5.598049167344802000E-017, 1.000000000000000000 ) ) ;
#82 = CARTESIAN_POINT ( 'NONE',  ( 0.0000000000000000000, -0.5450000000000001500, 0.6099999999999998800 ) ) ;
#83 = ORIENTED_EDGE ( 'NONE', *, *, #25, .F. ) ;
#84 = ORIENTED_EDGE ( 'NONE', *, *, #373, .F. ) ;
#85 = ORIENTED_EDGE ( 'NONE', *, *, #29, .F. ) ;
#86 = ORIENTED_EDGE ( 'NONE', *, *, #22, .F. ) ;
#87 = ORIENTED_EDGE ( 'NONE', *, *, #354, .F. ) ;
#88 = ORIENTED_EDGE ( 'NONE', *, *, #27, .T. ) ;
#89 = ORIENTED_EDGE ( 'NONE', *, *, #378, .F. ) ;
#90 = ORIENTED_EDGE ( 'NONE', *, *, #28, .T. ) ;
#91 = ORIENTED_EDGE ( 'NONE', *, *, #377, .F. ) ;
#92 = ORIENTED_EDGE ( 'NONE', *, *, #29, .T. ) ;
#93 = ORIENTED_EDGE ( 'NONE', *, *, #376, .F. ) ;
#94 = ORIENTED_EDGE ( 'NONE', *, *, #30, .T. ) ;
#95 = ORIENTED_EDGE ( 'NONE', *, *, #23, .F. ) ;
#96 = ORIENTED_EDGE ( 'NONE', *, *, #380, .F. ) ;
#97 = ORIENTED_EDGE ( 'NONE', *, *, #27, .F. ) ;
#98 = ORIENTED_EDGE ( 'NONE', *, *, #222, .F. ) ;
#99 = ORIENTED_EDGE ( 'NONE', *, *, #24, .F. ) ;
#100 = DESIGN_CONTEXT ( 'detailed design', #31, 'design' ) ;
#101 = PRODUCT_DEFINITION_SHAPE ( 'NONE', 'NONE',  #326 ) ;
#102 = VERTEX_POINT ( 'NONE', #156 ) ;
#103 = PRODUCT ( 'BH28AAW', 'BH28AAW', '', ( #7 ) ) ;
#104 = ORIENTED_EDGE ( 'NONE', *, *, #376, .T. ) ;
#105 = ORIENTED_EDGE ( 'NONE', *, *, #379, .T. ) ;
#106 = ORIENTED_EDGE ( 'NONE', *, *, #226, .F. ) ;
#107 = LINE ( 'NONE', #69, #108 ) ;
#108 = VECTOR ( 'NONE', #68, 39.37007874015748100 ) ;
#109 = LINE ( 'NONE', #178, #113 ) ;
#110 = LINE ( 'NONE', #176, #111 ) ;
#111 = VECTOR ( 'NONE', #177, 39.37007874015748100 ) ;
#112 = LINE ( 'NONE', #180, #115 ) ;
#113 = VECTOR ( 'NONE', #179, 39.37007874015748100 ) ;
#114 = LINE ( 'NONE', #185, #116 ) ;
#115 = VECTOR ( 'NONE', #181, 39.37007874015748100 ) ;
#116 = VECTOR ( 'NONE', #71, 39.37007874015748100 ) ;
#117 = VECTOR ( 'NONE', #74, 39.37007874015748100 ) ;
#118 = LINE ( 'NONE', #78, #41 ) ;
#119 = LENGTH_MEASURE_WITH_UNIT ( LENGTH_MEASURE( 0.02539999999999999900 ), #351 );
#120 = LINE ( 'NONE', #183, #121 ) ;
#121 = VECTOR ( 'NONE', #186, 39.37007874015748100 ) ;
#122 = LINE ( 'NONE', #75, #117 ) ;
#123 = LINE ( 'NONE', #76, #273 ) ;
#124 = VERTEX_POINT ( 'NONE', #150 ) ;
#125 = VERTEX_POINT ( 'NONE', #155 ) ;
#126 = VERTEX_POINT ( 'NONE', #164 ) ;
#127 = VERTEX_POINT ( 'NONE', #149 ) ;
#128 = VERTEX_POINT ( 'NONE', #62 ) ;
#129 = VERTEX_POINT ( 'NONE', #157 ) ;
#130 = VERTEX_POINT ( 'NONE', #63 ) ;
#131 = VERTEX_POINT ( 'NONE', #154 ) ;
#132 = VERTEX_POINT ( 'NONE', #64 ) ;
#133 = EDGE_LOOP ( 'NONE', ( #106, #20, #187, #189 ) ) ;
#134 = ORIENTED_EDGE ( 'NONE', *, *, #224, .F. ) ;
#135 = ORIENTED_EDGE ( 'NONE', *, *, #30, .F. ) ;
#136 = ORIENTED_EDGE ( 'NONE', *, *, #374, .F. ) ;
#137 = ORIENTED_EDGE ( 'NONE', *, *, #26, .F. ) ;
#138 = ORIENTED_EDGE ( 'NONE', *, *, #375, .F. ) ;
#139 = ORIENTED_EDGE ( 'NONE', *, *, #28, .F. ) ;
#140 = ORIENTED_EDGE ( 'NONE', *, *, #379, .F. ) ;
#141 = DIRECTION ( 'NONE',  ( 0.0000000000000000000, 0.0000000000000000000, -1.000000000000000000 ) ) ;
#142 = CARTESIAN_POINT ( 'NONE',  ( 4.250000000000000000, -0.3450000000000000300, -0.4099999999999999800 ) ) ;
#143 = DIRECTION ( 'NONE',  ( 1.000000000000000000, 0.0000000000000000000, -0.0000000000000000000 ) ) ;
#144 = DIRECTION ( 'NONE',  ( 0.0000000000000000000, 0.0000000000000000000, -1.000000000000000000 ) ) ;
#145 = DIRECTION ( 'NONE',  ( -1.000000000000000000, -0.0000000000000000000, 0.0000000000000000000 ) ) ;
#146 = DIRECTION ( 'NONE',  ( -1.000000000000000000, -0.0000000000000000000, 0.0000000000000000000 ) ) ;
#147 = CARTESIAN_POINT ( 'NONE',  ( 4.250000000000000000, 0.3450000000000000300, -0.4099999999999999800 ) ) ;
#148 = PLANE ( 'NONE',  #321 ) ;
#149 = CARTESIAN_POINT ( 'NONE',  ( 0.0000000000000000000, -0.5450000000000000400, -0.4099999999999999800 ) ) ;
#150 = CARTESIAN_POINT ( 'NONE',  ( 0.0000000000000000000, -0.3450000000000000300, -0.6100000000000001000 ) ) ;
#151 = CARTESIAN_POINT ( 'NONE',  ( 4.250000000000000000, -0.5450000000000001500, 0.6099999999999998800 ) ) ;
#152 = DIRECTION ( 'NONE',  ( 0.0000000000000000000, 0.0000000000000000000, -1.000000000000000000 ) ) ;
#153 = DIRECTION ( 'NONE',  ( -1.000000000000000000, 0.0000000000000000000, -0.0000000000000000000 ) ) ;
#154 = CARTESIAN_POINT ( 'NONE',  ( 4.250000000000000000, 0.3449999999999999200, 0.6099999999999998800 ) ) ;
#155 = CARTESIAN_POINT ( 'NONE',  ( 0.0000000000000000000, 0.5450000000000000400, -0.4099999999999999800 ) ) ;
#156 = CARTESIAN_POINT ( 'NONE',  ( 0.0000000000000000000, 0.5450000000000000400, 0.4099999999999998600 ) ) ;
#157 = CARTESIAN_POINT ( 'NONE',  ( 4.250000000000000000, 0.5450000000000000400, -0.4099999999999999800 ) ) ;
#158 = DIRECTION ( 'NONE',  ( 1.000000000000000000, 0.0000000000000000000, -0.0000000000000000000 ) ) ;
#159 = DIRECTION ( 'NONE',  ( -0.0000000000000000000, 0.0000000000000000000, -1.000000000000000000 ) ) ;
#160 = DIRECTION ( 'NONE',  ( -1.000000000000000000, 0.0000000000000000000, 0.0000000000000000000 ) ) ;
#161 = CARTESIAN_POINT ( 'NONE',  ( 4.250000000000000000, -0.3450000000000001400, 0.4099999999999998600 ) ) ;
#162 = DIRECTION ( 'NONE',  ( 0.0000000000000000000, 0.0000000000000000000, 1.000000000000000000 ) ) ;
#163 = DIRECTION ( 'NONE',  ( -1.000000000000000000, 0.0000000000000000000, 0.0000000000000000000 ) ) ;
#164 = CARTESIAN_POINT ( 'NONE',  ( 4.250000000000000000, -0.3450000000000001400, 0.6099999999999998800 ) ) ;
#165 = CARTESIAN_POINT ( 'NONE',  ( 4.250000000000000000, -0.3450000000000000300, -0.4099999999999999800 ) ) ;
#166 = DIRECTION ( 'NONE',  ( 0.0000000000000000000, -1.000000000000000000, -5.598049167344802000E-017 ) ) ;
#167 = DIRECTION ( 'NONE',  ( 0.0000000000000000000, 5.598049167344802000E-017, -1.000000000000000000 ) ) ;
#168 = CARTESIAN_POINT ( 'NONE',  ( 4.250000000000000000, 0.0000000000000000000, 0.0000000000000000000 ) ) ;
#169 = DIRECTION ( 'NONE',  ( 1.000000000000000000, 0.0000000000000000000, -0.0000000000000000000 ) ) ;
#170 = DIRECTION ( 'NONE',  ( -0.0000000000000000000, 0.0000000000000000000, -1.000000000000000000 ) ) ;
#171 = PLANE ( 'NONE',  #318 ) ;
#172 = DIRECTION ( 'NONE',  ( 0.0000000000000000000, 0.0000000000000000000, 1.000000000000000000 ) ) ;
#173 = CARTESIAN_POINT ( 'NONE',  ( 4.250000000000000000, -0.5450000000000001500, 0.4099999999999998600 ) ) ;
#174 = CARTESIAN_POINT ( 'NONE',  ( 4.250000000000000000, -0.5450000000000001500, 0.4099999999999998600 ) ) ;
#175 = DIRECTION ( 'NONE',  ( -1.000000000000000000, 0.0000000000000000000, 0.0000000000000000000 ) ) ;
#176 = CARTESIAN_POINT ( 'NONE',  ( 4.250000000000000000, -0.5450000000000000400, -0.4099999999999999800 ) ) ;
#177 = DIRECTION ( 'NONE',  ( 1.000000000000000000, -0.0000000000000000000, -0.0000000000000000000 ) ) ;
#178 = CARTESIAN_POINT ( 'NONE',  ( 4.250000000000000000, -0.5450000000000000400, -0.6100000000000001000 ) ) ;
#179 = DIRECTION ( 'NONE',  ( 0.0000000000000000000, 1.000000000000000000, 0.0000000000000000000 ) ) ;
#180 = CARTESIAN_POINT ( 'NONE',  ( 4.250000000000000000, -0.5450000000000000400, -0.6100000000000001000 ) ) ;
#181 = DIRECTION ( 'NONE',  ( -0.0000000000000000000, 1.119609833468960400E-016, -1.000000000000000000 ) ) ;
#182 = CARTESIAN_POINT ( 'NONE',  ( 0.0000000000000000000, 0.3449999999999999200, 0.6099999999999998800 ) ) ;
#183 = CARTESIAN_POINT ( 'NONE',  ( 0.0000000000000000000, -0.5450000000000000400, -0.6100000000000001000 ) ) ;
#184 = CARTESIAN_POINT ( 'NONE',  ( 4.250000000000000000, -0.3450000000000000300, -0.6100000000000001000 ) ) ;
#185 = CARTESIAN_POINT ( 'NONE',  ( 4.250000000000000000, 0.3450000000000000800, -0.6100000000000001000 ) ) ;
#186 = DIRECTION ( 'NONE',  ( -0.0000000000000000000, 1.119609833468960400E-016, -1.000000000000000000 ) ) ;
#187 = ORIENTED_EDGE ( 'NONE', *, *, #354, .T. ) ;
#188 = ORIENTED_EDGE ( 'NONE', *, *, #225, .F. ) ;
#189 = ORIENTED_EDGE ( 'NONE', *, *, #224, .T. ) ;
#190 = ORIENTED_EDGE ( 'NONE', *, *, #373, .T. ) ;
#191 = ORIENTED_EDGE ( 'NONE', *, *, #377, .T. ) ;
#192 = ORIENTED_EDGE ( 'NONE', *, *, #375, .T. ) ;
#193 = ORIENTED_EDGE ( 'NONE', *, *, #21, .F. ) ;
#194 = ORIENTED_EDGE ( 'NONE', *, *, #22, .T. ) ;
#195 = ORIENTED_EDGE ( 'NONE', *, *, #223, .T. ) ;
#196 = ORIENTED_EDGE ( 'NONE', *, *, #23, .T. ) ;
#197 = ORIENTED_EDGE ( 'NONE', *, *, #226, .T. ) ;
#198 = ORIENTED_EDGE ( 'NONE', *, *, #24, .T. ) ;
#199 = ORIENTED_EDGE ( 'NONE', *, *, #225, .T. ) ;
#200 = ORIENTED_EDGE ( 'NONE', *, *, #25, .T. ) ;
#201 = ORIENTED_EDGE ( 'NONE', *, *, #21, .T. ) ;
#202 = ORIENTED_EDGE ( 'NONE', *, *, #26, .T. ) ;
#203 = EDGE_LOOP ( 'NONE', ( #87, #88, #89, #90, #91, #92, #93, #94 ) ) ;
#204 = DIRECTION ( 'NONE',  ( 0.0000000000000000000, -1.707404996040164200E-015, -1.000000000000000000 ) ) ;
#205 = DIRECTION ( 'NONE',  ( 0.0000000000000000000, 0.0000000000000000000, 1.000000000000000000 ) ) ;
#206 = CARTESIAN_POINT ( 'NONE',  ( 0.0000000000000000000, -0.3450000000000000300, -0.4099999999999999800 ) ) ;
#207 = DIRECTION ( 'NONE',  ( -1.000000000000000000, -0.0000000000000000000, 0.0000000000000000000 ) ) ;
#208 = DIRECTION ( 'NONE',  ( 0.0000000000000000000, 0.0000000000000000000, -1.000000000000000000 ) ) ;
#209 = PLANE ( 'NONE',  #314 ) ;
#210 = PLANE ( 'NONE',  #315 ) ;
#211 = CARTESIAN_POINT ( 'NONE',  ( 4.250000000000000000, 0.5450000000000000400, -0.6100000000000001000 ) ) ;
#212 = DIRECTION ( 'NONE',  ( 0.0000000000000000000, -5.598049167344802000E-017, 1.000000000000000000 ) ) ;
#213 = CARTESIAN_POINT ( 'NONE',  ( 4.250000000000000000, 0.5450000000000000400, -0.6100000000000001000 ) ) ;
#214 = CARTESIAN_POINT ( 'NONE',  ( 4.250000000000000000, 0.5450000000000000400, -0.4099999999999999800 ) ) ;
#215 = DIRECTION ( 'NONE',  ( -1.000000000000000000, 0.0000000000000000000, 0.0000000000000000000 ) ) ;
#216 = DIRECTION ( 'NONE',  ( 1.000000000000000000, 0.0000000000000000000, -0.0000000000000000000 ) ) ;
#217 = CARTESIAN_POINT ( 'NONE',  ( 4.250000000000000000, -0.3450000000000001400, 0.4099999999999998600 ) ) ;
#218 = ADVANCED_FACE ( 'NONE', ( #285 ), #282, .T. ) ;
#219 = FACE_OUTER_BOUND ( 'NONE', #11, .T. ) ;
#220 = EDGE_LOOP ( 'NONE', ( #188, #9, #104, #190 ) ) ;
#221 = CLOSED_SHELL ( 'NONE', ( #60, #53, #54, #55, #56, #57, #58, #59, #218, #52 ) ) ;
#222 = EDGE_CURVE ( 'NONE', #371, #372, #284, .T. ) ;
#223 = EDGE_CURVE ( 'NONE', #131, #126, #107, .T. ) ;
#224 = EDGE_CURVE ( 'NONE', #127, #128, #110, .T. ) ;
#225 = EDGE_CURVE ( 'NONE', #345, #130, #109, .T. ) ;
#226 = EDGE_CURVE ( 'NONE', #371, #128, #112, .T. ) ;
#227 = DIRECTION ( 'NONE',  ( -0.0000000000000000000, 1.000000000000000000, 1.119609833468960400E-016 ) ) ;
#228 = DIRECTION ( 'NONE',  ( 0.0000000000000000000, -1.119609833468960400E-016, 1.000000000000000000 ) ) ;
#229 = CARTESIAN_POINT ( 'NONE',  ( 4.250000000000000000, -0.5450000000000000400, -0.6100000000000001000 ) ) ;
#230 = PLANE ( 'NONE',  #317 ) ;
#231 = DIRECTION ( 'NONE',  ( 0.0000000000000000000, 0.0000000000000000000, 1.000000000000000000 ) ) ;
#232 = DIRECTION ( 'NONE',  ( 1.000000000000000000, 0.0000000000000000000, -0.0000000000000000000 ) ) ;
#233 = PLANE ( 'NONE',  #316 ) ;
#234 = CARTESIAN_POINT ( 'NONE',  ( 0.0000000000000000000, 0.0000000000000000000, 0.0000000000000000000 ) ) ;
#235 = PERSON_AND_ORGANIZATION ( #353, #49 ) ;
#236 = APPROVAL_PERSON_ORGANIZATION ( #235, #327, #34 ) ;
#237 = COORDINATED_UNIVERSAL_TIME_OFFSET ( 5, 0, .BEHIND. ) ;
#238 = LOCAL_TIME ( 14, 20, 19.00000000000000000, #237 ) ;
#239 = CALENDAR_DATE ( 2014, 22, 8 ) ;
#240 = DATE_AND_TIME ( #239, #238 ) ;
#241 = APPROVAL_DATE_TIME ( #240, #327 ) ;
#242 = PERSON_AND_ORGANIZATION ( #353, #49 ) ;
#243 = COORDINATED_UNIVERSAL_TIME_OFFSET ( 5, 0, .BEHIND. ) ;
#244 = LOCAL_TIME ( 14, 20, 19.00000000000000000, #243 ) ;
#245 = CALENDAR_DATE ( 2014, 22, 8 ) ;
#246 = DATE_AND_TIME ( #245, #244 ) ;
#247 = PERSON_AND_ORGANIZATION ( #353, #49 ) ;
#248 = APPROVAL_PERSON_ORGANIZATION ( #247, #332, #38 ) ;
#249 = COORDINATED_UNIVERSAL_TIME_OFFSET ( 5, 0, .BEHIND. ) ;
#250 = LOCAL_TIME ( 14, 20, 19.00000000000000000, #249 ) ;
#251 = CALENDAR_DATE ( 2014, 22, 8 ) ;
#252 = DATE_AND_TIME ( #251, #250 ) ;
#253 = APPROVAL_DATE_TIME ( #252, #332 ) ;
#254 = PERSON_AND_ORGANIZATION ( #353, #49 ) ;
#255 = PERSON_AND_ORGANIZATION ( #353, #49 ) ;
#256 = PERSON_AND_ORGANIZATION ( #353, #49 ) ;
#257 = COORDINATED_UNIVERSAL_TIME_OFFSET ( 5, 0, .BEHIND. ) ;
#258 = LOCAL_TIME ( 14, 20, 19.00000000000000000, #257 ) ;
#259 = CALENDAR_DATE ( 2014, 22, 8 ) ;
#260 = DATE_AND_TIME ( #259, #258 ) ;
#261 = PERSON_AND_ORGANIZATION ( #353, #49 ) ;
#262 = APPROVAL_PERSON_ORGANIZATION ( #261, #339, #16 ) ;
#263 = COORDINATED_UNIVERSAL_TIME_OFFSET ( 5, 0, .BEHIND. ) ;
#264 = LOCAL_TIME ( 14, 20, 19.00000000000000000, #263 ) ;
#265 = CALENDAR_DATE ( 2014, 22, 8 ) ;
#266 = DATE_AND_TIME ( #265, #264 ) ;
#267 = APPROVAL_DATE_TIME ( #266, #339 ) ;
#268 = ADVANCED_BREP_SHAPE_REPRESENTATION ( 'BH28AAW', ( #355, #324 ), #322 ) ;
#269 = UNCERTAINTY_MEASURE_WITH_UNIT (LENGTH_MEASURE( 1.000000000000000100E-005 ), #352, 'distance_accuracy_value', 'NONE');
#270 = CIRCLE ( 'NONE', #312, 0.2000000000000000400 ) ;
#271 = FACE_OUTER_BOUND ( 'NONE', #133, .T. ) ;
#272 = FACE_OUTER_BOUND ( 'NONE', #220, .T. ) ;
#273 = VECTOR ( 'NONE', #77, 39.37007874015748100 ) ;
#274 = CYLINDRICAL_SURFACE ( 'NONE', #313, 0.2000000000000000100 ) ;
#275 = FACE_OUTER_BOUND ( 'NONE', #287, .T. ) ;
#276 = FACE_OUTER_BOUND ( 'NONE', #203, .T. ) ;
#277 = FACE_OUTER_BOUND ( 'NONE', #286, .T. ) ;
#278 = FACE_OUTER_BOUND ( 'NONE', #10, .T. ) ;
#279 = FACE_OUTER_BOUND ( 'NONE', #289, .T. ) ;
#280 = VECTOR ( 'NONE', #175, 39.37007874015748100 ) ;
#281 = CYLINDRICAL_SURFACE ( 'NONE', #319, 0.2000000000000000400 ) ;
#282 = CYLINDRICAL_SURFACE ( 'NONE', #323, 0.2000000000000000400 ) ;
#283 = CYLINDRICAL_SURFACE ( 'NONE', #320, 0.2000000000000000100 ) ;
#284 = LINE ( 'NONE', #174, #280 ) ;
#285 = FACE_OUTER_BOUND ( 'NONE', #290, .T. ) ;
#286 = EDGE_LOOP ( 'NONE', ( #95, #96, #97, #98 ) ) ;
#287 = EDGE_LOOP ( 'NONE', ( #195, #196, #197, #198, #199, #200, #201, #202 ) ) ;
#288 = EDGE_LOOP ( 'NONE', ( #83, #84, #85, #86 ) ) ;
#289 = EDGE_LOOP ( 'NONE', ( #99, #134, #135, #136 ) ) ;
#290 = EDGE_LOOP ( 'NONE', ( #137, #138, #139, #140 ) ) ;
#291 = LINE ( 'NONE', #214, #296 ) ;
#292 = CIRCLE ( 'NONE', #18, 0.2000000000000000100 ) ;
#293 = LINE ( 'NONE', #213, #294 ) ;
#294 = VECTOR ( 'NONE', #212, 39.37007874015748100 ) ;
#295 = CIRCLE ( 'NONE', #310, 0.2000000000000000100 ) ;
#296 = VECTOR ( 'NONE', #215, 39.37007874015748100 ) ;
#297 = CIRCLE ( 'NONE', #306, 0.2000000000000000400 ) ;
#298 = CIRCLE ( 'NONE', #307, 0.2000000000000000400 ) ;
#299 = CIRCLE ( 'NONE', #308, 0.2000000000000000100 ) ;
#300 = CIRCLE ( 'NONE', #309, 0.2000000000000000100 ) ;
#301 = FACE_OUTER_BOUND ( 'NONE', #288, .T. ) ;
#302 = CIRCLE ( 'NONE', #311, 0.2000000000000000400 ) ;
#303 = ORIENTED_EDGE ( 'NONE', *, *, #380, .T. ) ;
#304 = ORIENTED_EDGE ( 'NONE', *, *, #223, .F. ) ;
#305 = ORIENTED_EDGE ( 'NONE', *, *, #378, .T. ) ;
#306 = AXIS2_PLACEMENT_3D ( 'NONE', #142, #143, #144 ) ;
#307 = AXIS2_PLACEMENT_3D ( 'NONE', #147, #216, #356 ) ;
#308 = AXIS2_PLACEMENT_3D ( 'NONE', #357, #358, #359 ) ;
#309 = AXIS2_PLACEMENT_3D ( 'NONE', #360, #145, #361 ) ;
#310 = AXIS2_PLACEMENT_3D ( 'NONE', #363, #364, #365 ) ;
#311 = AXIS2_PLACEMENT_3D ( 'NONE', #368, #146, #204 ) ;
#312 = AXIS2_PLACEMENT_3D ( 'NONE', #206, #207, #208 ) ;
#313 = AXIS2_PLACEMENT_3D ( 'NONE', #366, #367, #205 ) ;
#314 = AXIS2_PLACEMENT_3D ( 'NONE', #362, #227, #228 ) ;
#315 = AXIS2_PLACEMENT_3D ( 'NONE', #229, #231, #232 ) ;
#316 = AXIS2_PLACEMENT_3D ( 'NONE', #211, #166, #167 ) ;
#317 = AXIS2_PLACEMENT_3D ( 'NONE', #168, #169, #170 ) ;
#318 = AXIS2_PLACEMENT_3D ( 'NONE', #234, #158, #159 ) ;
#319 = AXIS2_PLACEMENT_3D ( 'NONE', #161, #160, #162 ) ;
#320 = AXIS2_PLACEMENT_3D ( 'NONE', #165, #163, #172 ) ;
#321 = AXIS2_PLACEMENT_3D ( 'NONE', #151, #152, #153 ) ;
#322 =( GEOMETRIC_REPRESENTATION_CONTEXT ( 3 ) GLOBAL_UNCERTAINTY_ASSIGNED_CONTEXT ( ( #269 ) ) GLOBAL_UNIT_ASSIGNED_CONTEXT ( ( #352, #1, #2 ) ) REPRESENTATION_CONTEXT ( 'NONE', 'WORKASPACE' ) );
#323 = AXIS2_PLACEMENT_3D ( 'NONE', #66, #67, #65 ) ;
#324 = AXIS2_PLACEMENT_3D ( 'NONE', #350, #5, #6 ) ;
#325 = CC_DESIGN_PERSON_AND_ORGANIZATION_ASSIGNMENT ( #17, #8, ( #103 ) ) ;
#326 = PRODUCT_DEFINITION ( 'UNKNOWN', '', #331, #100 ) ;
#327 = APPROVAL ( #33, 'UNSPECIFIED' ) ;
#328 = CC_DESIGN_APPROVAL ( #327, ( #326 ) ) ;
#329 = CC_DESIGN_PERSON_AND_ORGANIZATION_ASSIGNMENT ( #242, #35, ( #326 ) ) ;
#330 = CC_DESIGN_DATE_AND_TIME_ASSIGNMENT ( #246, #36, ( #326 ) ) ;
#331 = PRODUCT_DEFINITION_FORMATION_WITH_SPECIFIED_SOURCE ( 'ANY', '', #103, .NOT_KNOWN. ) ;
#332 = APPROVAL ( #37, 'UNSPECIFIED' ) ;
#333 = CC_DESIGN_APPROVAL ( #332, ( #331 ) ) ;
#334 = CC_DESIGN_PERSON_AND_ORGANIZATION_ASSIGNMENT ( #254, #39, ( #331 ) ) ;
#335 = CC_DESIGN_PERSON_AND_ORGANIZATION_ASSIGNMENT ( #255, #40, ( #331 ) ) ;
#336 = SECURITY_CLASSIFICATION ( '', '', #12 ) ;
#337 = CC_DESIGN_PERSON_AND_ORGANIZATION_ASSIGNMENT ( #256, #13, ( #336 ) ) ;
#338 = CC_DESIGN_DATE_AND_TIME_ASSIGNMENT ( #260, #14, ( #336 ) ) ;
#339 = APPROVAL ( #15, 'UNSPECIFIED' ) ;
#340 = CC_DESIGN_APPROVAL ( #339, ( #336 ) ) ;
#341 = CC_DESIGN_SECURITY_CLASSIFICATION ( #336, ( #331 ) ) ;
#342 = PRODUCT_RELATED_PRODUCT_CATEGORY ( 'detail', '', ( #103 ) ) ;
#343 = VERTEX_POINT ( 'NONE', #182 ) ;
#344 = VERTEX_POINT ( 'NONE', #70 ) ;
#345 = VERTEX_POINT ( 'NONE', #184 ) ;
#346 = DIRECTION ( 'NONE',  ( -0.0000000000000000000, -1.000000000000000000, -0.0000000000000000000 ) ) ;
#347 = DIRECTION ( 'NONE',  ( -1.000000000000000000, 0.0000000000000000000, 0.0000000000000000000 ) ) ;
#348 = CARTESIAN_POINT ( 'NONE',  ( 4.250000000000000000, -0.3450000000000001400, 0.6099999999999998800 ) ) ;
#349 = DIRECTION ( 'NONE',  ( 1.000000000000000000, -0.0000000000000000000, -0.0000000000000000000 ) ) ;
#350 = CARTESIAN_POINT ( 'NONE',  ( 0.0000000000000000000, 0.0000000000000000000, 0.0000000000000000000 ) ) ;
#351 =( LENGTH_UNIT ( ) NAMED_UNIT ( * ) SI_UNIT ( $, .METRE. ) );
#352 =( CONVERSION_BASED_UNIT ( 'INCH', #119 ) LENGTH_UNIT ( ) NAMED_UNIT ( #61 ) );
#353 = PERSON ( 'UNSPECIFIED', 'UNSPECIFIED', 'UNSPECIFIED', ('UNSPECIFIED'), ('UNSPECIFIED'), ('UNSPECIFIED') ) ;
#354 = EDGE_CURVE ( 'NONE', #372, #127, #120, .T. ) ;
#355 = MANIFOLD_SOLID_BREP ( 'Fillet1', #221 ) ;
#356 = DIRECTION ( 'NONE',  ( 0.0000000000000000000, 0.0000000000000000000, -1.000000000000000000 ) ) ;
#357 = CARTESIAN_POINT ( 'NONE',  ( 4.250000000000000000, 0.3449999999999999200, 0.4099999999999998600 ) ) ;
#358 = DIRECTION ( 'NONE',  ( 1.000000000000000000, 0.0000000000000000000, -0.0000000000000000000 ) ) ;
#359 = DIRECTION ( 'NONE',  ( 0.0000000000000000000, 0.0000000000000000000, -1.000000000000000000 ) ) ;
#360 = CARTESIAN_POINT ( 'NONE',  ( 0.0000000000000000000, -0.3450000000000001400, 0.4099999999999998600 ) ) ;
#361 = DIRECTION ( 'NONE',  ( 0.0000000000000000000, 1.024442997624098700E-015, -1.000000000000000000 ) ) ;
#362 = CARTESIAN_POINT ( 'NONE',  ( 4.250000000000000000, -0.5450000000000000400, -0.6100000000000001000 ) ) ;
#363 = CARTESIAN_POINT ( 'NONE',  ( 0.0000000000000000000, 0.3449999999999999200, 0.4099999999999998600 ) ) ;
#364 = DIRECTION ( 'NONE',  ( -1.000000000000000000, -0.0000000000000000000, 0.0000000000000000000 ) ) ;
#365 = DIRECTION ( 'NONE',  ( 0.0000000000000000000, 0.0000000000000000000, -1.000000000000000000 ) ) ;
#366 = CARTESIAN_POINT ( 'NONE',  ( 4.250000000000000000, 0.3450000000000000300, -0.4099999999999999800 ) ) ;
#367 = DIRECTION ( 'NONE',  ( -1.000000000000000000, 0.0000000000000000000, 0.0000000000000000000 ) ) ;
#368 = CARTESIAN_POINT ( 'NONE',  ( 0.0000000000000000000, 0.3450000000000000300, -0.4099999999999999800 ) ) ;
#369 = CARTESIAN_POINT ( 'NONE',  ( 0.0000000000000000000, -0.3450000000000001400, 0.6099999999999998800 ) ) ;
#370 = DIRECTION ( 'NONE',  ( 1.000000000000000000, 0.0000000000000000000, -0.0000000000000000000 ) ) ;
#371 = VERTEX_POINT ( 'NONE', #173 ) ;
#372 = VERTEX_POINT ( 'NONE', #72 ) ;
#373 = EDGE_CURVE ( 'NONE', #132, #130, #114, .T. ) ;
#374 = EDGE_CURVE ( 'NONE', #345, #124, #122, .T. ) ;
#375 = EDGE_CURVE ( 'NONE', #102, #344, #123, .T. ) ;
#376 = EDGE_CURVE ( 'NONE', #124, #132, #118, .T. ) ;
#377 = EDGE_CURVE ( 'NONE', #125, #102, #43, .T. ) ;
#378 = EDGE_CURVE ( 'NONE', #343, #19, #42, .T. ) ;
#379 = EDGE_CURVE ( 'NONE', #131, #343, #47, .T. ) ;
#380 = EDGE_CURVE ( 'NONE', #19, #126, #46, .T. ) ;
ENDSEC;
END-ISO-10303-21;
