ISO-10303-21;
HEADER;
FILE_DESCRIPTION (( 'STEP AP203' ),
    '1' );
FILE_NAME ('BH48AAL.STEP',
    '2014-08-22T18:21:22',
    ( 'Intern' ),
    ( '' ),
    'SwSTEP 2.0',
    'SolidWorks 2012',
    '' );
FILE_SCHEMA (( 'CONFIG_CONTROL_DESIGN' ));
ENDSEC;

DATA;
#1 = ORIENTED_EDGE ( 'NONE', *, *, #171, .T. ) ;
#2 = APPLICATION_PROTOCOL_DEFINITION ( 'international standard', 'config_control_design', 1994, #50 ) ;
#3 = APPROVAL_STATUS ( 'not_yet_approved' ) ;
#4 = APPROVAL_ROLE ( '' ) ;
#5 = PERSON_AND_ORGANIZATION_ROLE ( 'creator' ) ;
#6 = DATE_TIME_ROLE ( 'creation_date' ) ;
#7 = APPROVAL_STATUS ( 'not_yet_approved' ) ;
#8 = APPROVAL_ROLE ( '' ) ;
#9 = PERSON_AND_ORGANIZATION_ROLE ( 'creator' ) ;
#10 = PERSON_AND_ORGANIZATION_ROLE ( 'design_supplier' ) ;
#11 = SECURITY_CLASSIFICATION_LEVEL ( 'unclassified' ) ;
#12 = PERSON_AND_ORGANIZATION_ROLE ( 'classification_officer' ) ;
#13 = DATE_TIME_ROLE ( 'classification_date' ) ;
#14 = APPROVAL_STATUS ( 'not_yet_approved' ) ;
#15 = APPROVAL_ROLE ( '' ) ;
#16 = EDGE_CURVE ( 'NONE', #195, #199, #129, .T. ) ;
#17 = DIRECTION ( 'NONE',  ( 1.000000000000000000, -0.0000000000000000000, -0.0000000000000000000 ) ) ;
#18 = DIRECTION ( 'NONE',  ( 0.0000000000000000000, 0.0000000000000000000, 1.000000000000000000 ) ) ;
#19 = DIRECTION ( 'NONE',  ( 0.0000000000000000000, 1.000000000000000000, 0.0000000000000000000 ) ) ;
#20 = CARTESIAN_POINT ( 'NONE',  ( 2.279999999999999800, 0.3799999999999998900, 0.9700000000000002000 ) ) ;
#21 = DIRECTION ( 'NONE',  ( 1.000000000000000000, -0.0000000000000000000, -0.0000000000000000000 ) ) ;
#22 = DIRECTION ( 'NONE',  ( 0.0000000000000000000, 0.0000000000000000000, 1.000000000000000000 ) ) ;
#23 = CARTESIAN_POINT ( 'NONE',  ( 2.279999999999999800, 0.5799999999999999600, 0.9700000000000002000 ) ) ;
#24 = EDGE_CURVE ( 'NONE', #196, #197, #132, .T. ) ;
#25 = EDGE_CURVE ( 'NONE', #205, #206, #128, .T. ) ;
#26 = EDGE_CURVE ( 'NONE', #205, #204, #131, .T. ) ;
#27 = EDGE_CURVE ( 'NONE', #206, #207, #133, .T. ) ;
#28 = EDGE_CURVE ( 'NONE', #204, #230, #137, .T. ) ;
#29 = EDGE_CURVE ( 'NONE', #203, #208, #138, .T. ) ;
#30 = EDGE_CURVE ( 'NONE', #201, #195, #139, .T. ) ;
#31 = EDGE_CURVE ( 'NONE', #198, #202, #140, .T. ) ;
#32 = ORIENTED_EDGE ( 'NONE', *, *, #171, .F. ) ;
#33 = EDGE_LOOP ( 'NONE', ( #177, #178, #179, #180 ) ) ;
#34 = ORIENTED_EDGE ( 'NONE', *, *, #24, .T. ) ;
#35 = ORIENTED_EDGE ( 'NONE', *, *, #27, .T. ) ;
#36 = ORIENTED_EDGE ( 'NONE', *, *, #376, .F. ) ;
#37 = DIRECTION ( 'NONE',  ( -1.000000000000000000, 0.0000000000000000000, 0.0000000000000000000 ) ) ;
#38 = CARTESIAN_POINT ( 'NONE',  ( 2.279999999999999800, -0.3799999999999998900, 0.9700000000000002000 ) ) ;
#39 = DIRECTION ( 'NONE',  ( 1.000000000000000000, -0.0000000000000000000, -0.0000000000000000000 ) ) ;
#40 = DIRECTION ( 'NONE',  ( 0.0000000000000000000, 0.0000000000000000000, 1.000000000000000000 ) ) ;
#41 =( LENGTH_UNIT ( ) NAMED_UNIT ( * ) SI_UNIT ( $, .METRE. ) );
#42 =( CONVERSION_BASED_UNIT ( 'INCH', #63 ) LENGTH_UNIT ( ) NAMED_UNIT ( #226 ) );
#43 =( NAMED_UNIT ( * ) PLANE_ANGLE_UNIT ( ) SI_UNIT ( $, .RADIAN. ) );
#44 =( NAMED_UNIT ( * ) SI_UNIT ( $, .STERADIAN. ) SOLID_ANGLE_UNIT ( ) );
#45 = APPLICATION_PROTOCOL_DEFINITION ( 'international standard', 'config_control_design', 1994, #46 ) ;
#46 = APPLICATION_CONTEXT ( 'configuration controlled 3d designs of mechanical parts and assemblies' ) ;
#47 = DIRECTION ( 'NONE',  ( 1.000000000000000000, 0.0000000000000000000, 0.0000000000000000000 ) ) ;
#48 = MECHANICAL_CONTEXT ( 'NONE', #46, 'mechanical' ) ;
#49 = PERSON_AND_ORGANIZATION_ROLE ( 'design_owner' ) ;
#50 = APPLICATION_CONTEXT ( 'configuration controlled 3d designs of mechanical parts and assemblies' ) ;
#51 = DESIGN_CONTEXT ( 'detailed design', #50, 'design' ) ;
#52 = PRODUCT_DEFINITION_SHAPE ( 'NONE', 'NONE',  #289 ) ;
#53 = CLOSED_SHELL ( 'NONE', ( #219, #225, #227, #218, #217, #220, #221, #222, #223, #224 ) ) ;
#54 = VECTOR ( 'NONE', #259, 39.37007874015748100 ) ;
#55 = EDGE_LOOP ( 'NONE', ( #1, #56, #228, #144 ) ) ;
#56 = ORIENTED_EDGE ( 'NONE', *, *, #312, .T. ) ;
#57 = PRODUCT ( 'BH48AAL', 'BH48AAL', '', ( #48 ) ) ;
#58 = VECTOR ( 'NONE', #75, 39.37007874015748100 ) ;
#59 = CIRCLE ( 'NONE', #285, 0.2000000000000000400 ) ;
#60 = LINE ( 'NONE', #76, #61 ) ;
#61 = VECTOR ( 'NONE', #37, 39.37007874015748100 ) ;
#62 = SHAPE_DEFINITION_REPRESENTATION ( #52, #192 ) ;
#63 = LENGTH_MEASURE_WITH_UNIT ( LENGTH_MEASURE( 0.02539999999999999900 ), #41 );
#64 = DIRECTION ( 'NONE',  ( -0.0000000000000000000, -0.0000000000000000000, 1.000000000000000000 ) ) ;
#65 = DIRECTION ( 'NONE',  ( 0.0000000000000000000, 0.0000000000000000000, 1.000000000000000000 ) ) ;
#66 = CARTESIAN_POINT ( 'NONE',  ( 0.0000000000000000000, 0.0000000000000000000, 0.0000000000000000000 ) ) ;
#67 = CARTESIAN_POINT ( 'NONE',  ( 0.0000000000000000000, 0.3799999999999998900, -0.9699999999999996400 ) ) ;
#68 = DIRECTION ( 'NONE',  ( -1.000000000000000000, 0.0000000000000000000, 0.0000000000000000000 ) ) ;
#69 = DIRECTION ( 'NONE',  ( 0.0000000000000000000, 0.0000000000000000000, 1.000000000000000000 ) ) ;
#70 = CARTESIAN_POINT ( 'NONE',  ( 0.0000000000000000000, -0.5799999999999999600, 1.170000000000000200 ) ) ;
#71 = DIRECTION ( 'NONE',  ( 0.0000000000000000000, 0.0000000000000000000, -1.000000000000000000 ) ) ;
#72 = CARTESIAN_POINT ( 'NONE',  ( 2.279999999999999800, -0.5799999999999999600, -0.9699999999999996400 ) ) ;
#73 = DIRECTION ( 'NONE',  ( 1.000000000000000000, -0.0000000000000000000, -0.0000000000000000000 ) ) ;
#74 = CARTESIAN_POINT ( 'NONE',  ( 2.279999999999999800, 0.3799999999999998900, -1.169999999999999700 ) ) ;
#75 = DIRECTION ( 'NONE',  ( 1.000000000000000000, -0.0000000000000000000, -0.0000000000000000000 ) ) ;
#76 = CARTESIAN_POINT ( 'NONE',  ( 2.279999999999999800, -0.3799999999999998900, -1.169999999999999700 ) ) ;
#77 = CARTESIAN_POINT ( 'NONE',  ( 2.279999999999999800, -0.5799999999999999600, 1.170000000000000200 ) ) ;
#78 = DIRECTION ( 'NONE',  ( -1.000000000000000000, 0.0000000000000000000, 0.0000000000000000000 ) ) ;
#79 = CARTESIAN_POINT ( 'NONE',  ( 2.279999999999999800, -0.5799999999999999600, 0.9700000000000002000 ) ) ;
#80 = PLANE ( 'NONE',  #282 ) ;
#81 = CARTESIAN_POINT ( 'NONE',  ( 2.279999999999999800, -0.5799999999999999600, 1.170000000000000200 ) ) ;
#82 = DIRECTION ( 'NONE',  ( -0.0000000000000000000, -0.0000000000000000000, 1.000000000000000000 ) ) ;
#83 = CARTESIAN_POINT ( 'NONE',  ( 2.279999999999999800, 0.5799999999999999600, 1.170000000000000200 ) ) ;
#84 = DIRECTION ( 'NONE',  ( 0.0000000000000000000, -1.000000000000000000, 0.0000000000000000000 ) ) ;
#85 = DIRECTION ( 'NONE',  ( 0.0000000000000000000, -0.0000000000000000000, -1.000000000000000000 ) ) ;
#86 = PLANE ( 'NONE',  #284 ) ;
#87 = CARTESIAN_POINT ( 'NONE',  ( 2.279999999999999800, -0.3799999999999998900, -1.169999999999999700 ) ) ;
#88 = DIRECTION ( 'NONE',  ( 0.0000000000000000000, 0.0000000000000000000, -1.000000000000000000 ) ) ;
#89 = DIRECTION ( 'NONE',  ( -1.000000000000000000, 0.0000000000000000000, -0.0000000000000000000 ) ) ;
#90 = CARTESIAN_POINT ( 'NONE',  ( 2.279999999999999800, 0.5799999999999999600, 1.170000000000000200 ) ) ;
#91 = CARTESIAN_POINT ( 'NONE',  ( 2.279999999999999800, 0.3799999999999998900, 1.170000000000000200 ) ) ;
#92 = DIRECTION ( 'NONE',  ( 1.000000000000000000, -0.0000000000000000000, -0.0000000000000000000 ) ) ;
#93 = CARTESIAN_POINT ( 'NONE',  ( 2.279999999999999800, -0.3799999999999998900, 1.170000000000000200 ) ) ;
#94 = DIRECTION ( 'NONE',  ( -1.000000000000000000, 0.0000000000000000000, 0.0000000000000000000 ) ) ;
#95 = CYLINDRICAL_SURFACE ( 'NONE', #280, 0.2000000000000000400 ) ;
#96 = FACE_OUTER_BOUND ( 'NONE', #55, .T. ) ;
#97 = LINE ( 'NONE', #93, #103 ) ;
#98 = CYLINDRICAL_SURFACE ( 'NONE', #281, 0.2000000000000000400 ) ;
#99 = LINE ( 'NONE', #90, #101 ) ;
#100 = CIRCLE ( 'NONE', #283, 0.2000000000000000400 ) ;
#101 = VECTOR ( 'NONE', #82, 39.37007874015748100 ) ;
#102 = LINE ( 'NONE', #240, #104 ) ;
#103 = VECTOR ( 'NONE', #92, 39.37007874015748100 ) ;
#104 = VECTOR ( 'NONE', #64, 39.37007874015748100 ) ;
#105 = LINE ( 'NONE', #91, #107 ) ;
#106 = LINE ( 'NONE', #70, #109 ) ;
#107 = VECTOR ( 'NONE', #94, 39.37007874015748100 ) ;
#108 = LINE ( 'NONE', #72, #127 ) ;
#109 = VECTOR ( 'NONE', #71, 39.37007874015748100 ) ;
#110 = LINE ( 'NONE', #74, #58 ) ;
#111 = LINE ( 'NONE', #260, #112 ) ;
#112 = VECTOR ( 'NONE', #262, 39.37007874015748100 ) ;
#113 = FACE_OUTER_BOUND ( 'NONE', #229, .T. ) ;
#114 = LINE ( 'NONE', #167, #115 ) ;
#115 = VECTOR ( 'NONE', #263, 39.37007874015748100 ) ;
#116 = FACE_OUTER_BOUND ( 'NONE', #159, .T. ) ;
#117 = LINE ( 'NONE', #163, #118 ) ;
#118 = VECTOR ( 'NONE', #265, 39.37007874015748100 ) ;
#119 = FACE_OUTER_BOUND ( 'NONE', #231, .T. ) ;
#120 = FACE_OUTER_BOUND ( 'NONE', #232, .T. ) ;
#121 = FACE_OUTER_BOUND ( 'NONE', #158, .T. ) ;
#122 = CYLINDRICAL_SURFACE ( 'NONE', #278, 0.2000000000000000400 ) ;
#123 = FACE_OUTER_BOUND ( 'NONE', #157, .T. ) ;
#124 = FACE_OUTER_BOUND ( 'NONE', #160, .T. ) ;
#125 = FACE_OUTER_BOUND ( 'NONE', #233, .T. ) ;
#126 = FACE_OUTER_BOUND ( 'NONE', #33, .T. ) ;
#127 = VECTOR ( 'NONE', #73, 39.37007874015748100 ) ;
#128 = LINE ( 'NONE', #79, #134 ) ;
#129 = LINE ( 'NONE', #310, #130 ) ;
#130 = VECTOR ( 'NONE', #210, 39.37007874015748100 ) ;
#131 = LINE ( 'NONE', #77, #136 ) ;
#132 = CIRCLE ( 'NONE', #268, 0.2000000000000000400 ) ;
#133 = CIRCLE ( 'NONE', #269, 0.2000000000000000400 ) ;
#134 = VECTOR ( 'NONE', #78, 39.37007874015748100 ) ;
#135 = LINE ( 'NONE', #334, #142 ) ;
#136 = VECTOR ( 'NONE', #214, 39.37007874015748100 ) ;
#137 = CIRCLE ( 'NONE', #270, 0.2000000000000000400 ) ;
#138 = CIRCLE ( 'NONE', #271, 0.2000000000000000400 ) ;
#139 = CIRCLE ( 'NONE', #272, 0.2000000000000000400 ) ;
#140 = CIRCLE ( 'NONE', #273, 0.2000000000000000400 ) ;
#141 = LINE ( 'NONE', #23, #54 ) ;
#142 = VECTOR ( 'NONE', #19, 39.37007874015748100 ) ;
#143 = CYLINDRICAL_SURFACE ( 'NONE', #279, 0.2000000000000000400 ) ;
#144 = ORIENTED_EDGE ( 'NONE', *, *, #375, .T. ) ;
#145 = ORIENTED_EDGE ( 'NONE', *, *, #26, .F. ) ;
#146 = ORIENTED_EDGE ( 'NONE', *, *, #25, .T. ) ;
#147 = ORIENTED_EDGE ( 'NONE', *, *, #376, .T. ) ;
#148 = ORIENTED_EDGE ( 'NONE', *, *, #377, .T. ) ;
#149 = ORIENTED_EDGE ( 'NONE', *, *, #172, .T. ) ;
#150 = ORIENTED_EDGE ( 'NONE', *, *, #380, .T. ) ;
#151 = ORIENTED_EDGE ( 'NONE', *, *, #26, .T. ) ;
#152 = ORIENTED_EDGE ( 'NONE', *, *, #28, .T. ) ;
#153 = ORIENTED_EDGE ( 'NONE', *, *, #168, .T. ) ;
#154 = ORIENTED_EDGE ( 'NONE', *, *, #30, .T. ) ;
#155 = ORIENTED_EDGE ( 'NONE', *, *, #267, .T. ) ;
#156 = ORIENTED_EDGE ( 'NONE', *, *, #31, .T. ) ;
#157 = EDGE_LOOP ( 'NONE', ( #185, #190, #193, #194 ) ) ;
#158 = EDGE_LOOP ( 'NONE', ( #188, #189, #187, #186 ) ) ;
#159 = EDGE_LOOP ( 'NONE', ( #145, #146, #147, #148 ) ) ;
#160 = EDGE_LOOP ( 'NONE', ( #149, #150, #151, #152, #153, #154, #155, #156 ) ) ;
#161 = DIRECTION ( 'NONE',  ( 1.000000000000000000, -0.0000000000000000000, -0.0000000000000000000 ) ) ;
#162 = DIRECTION ( 'NONE',  ( 0.0000000000000000000, 0.0000000000000000000, 1.000000000000000000 ) ) ;
#163 = CARTESIAN_POINT ( 'NONE',  ( 2.279999999999999800, -0.5799999999999999600, 1.170000000000000200 ) ) ;
#164 = CARTESIAN_POINT ( 'NONE',  ( 0.0000000000000000000, -0.3799999999999998900, -0.9699999999999996400 ) ) ;
#165 = DIRECTION ( 'NONE',  ( -1.000000000000000000, 0.0000000000000000000, 0.0000000000000000000 ) ) ;
#166 = DIRECTION ( 'NONE',  ( 0.0000000000000000000, 0.0000000000000000000, 1.000000000000000000 ) ) ;
#167 = CARTESIAN_POINT ( 'NONE',  ( 0.0000000000000000000, -0.5799999999999999600, 1.170000000000000200 ) ) ;
#168 = EDGE_CURVE ( 'NONE', #230, #201, #135, .T. ) ;
#169 = EDGE_CURVE ( 'NONE', #197, #198, #141, .T. ) ;
#170 = EDGE_CURVE ( 'NONE', #203, #209, #111, .T. ) ;
#171 = EDGE_CURVE ( 'NONE', #196, #207, #114, .T. ) ;
#172 = EDGE_CURVE ( 'NONE', #202, #200, #117, .T. ) ;
#173 = ORIENTED_EDGE ( 'NONE', *, *, #28, .F. ) ;
#174 = ORIENTED_EDGE ( 'NONE', *, *, #377, .F. ) ;
#175 = ORIENTED_EDGE ( 'NONE', *, *, #29, .F. ) ;
#176 = ORIENTED_EDGE ( 'NONE', *, *, #379, .F. ) ;
#177 = ORIENTED_EDGE ( 'NONE', *, *, #31, .F. ) ;
#178 = ORIENTED_EDGE ( 'NONE', *, *, #169, .F. ) ;
#179 = ORIENTED_EDGE ( 'NONE', *, *, #24, .F. ) ;
#180 = ORIENTED_EDGE ( 'NONE', *, *, #375, .F. ) ;
#181 = ORIENTED_EDGE ( 'NONE', *, *, #30, .F. ) ;
#182 = ORIENTED_EDGE ( 'NONE', *, *, #378, .F. ) ;
#183 = ORIENTED_EDGE ( 'NONE', *, *, #374, .F. ) ;
#184 = ORIENTED_EDGE ( 'NONE', *, *, #16, .F. ) ;
#185 = ORIENTED_EDGE ( 'NONE', *, *, #373, .T. ) ;
#186 = ORIENTED_EDGE ( 'NONE', *, *, #378, .T. ) ;
#187 = ORIENTED_EDGE ( 'NONE', *, *, #170, .T. ) ;
#188 = ORIENTED_EDGE ( 'NONE', *, *, #168, .F. ) ;
#189 = ORIENTED_EDGE ( 'NONE', *, *, #379, .T. ) ;
#190 = ORIENTED_EDGE ( 'NONE', *, *, #169, .T. ) ;
#191 = UNCERTAINTY_MEASURE_WITH_UNIT (LENGTH_MEASURE( 1.000000000000000100E-005 ), #42, 'distance_accuracy_value', 'NONE');
#192 = ADVANCED_BREP_SHAPE_REPRESENTATION ( 'BH48AAL', ( #313, #287 ), #286 ) ;
#193 = ORIENTED_EDGE ( 'NONE', *, *, #267, .F. ) ;
#194 = ORIENTED_EDGE ( 'NONE', *, *, #16, .T. ) ;
#195 = VERTEX_POINT ( 'NONE', #264 ) ;
#196 = VERTEX_POINT ( 'NONE', #266 ) ;
#197 = VERTEX_POINT ( 'NONE', #326 ) ;
#198 = VERTEX_POINT ( 'NONE', #325 ) ;
#199 = VERTEX_POINT ( 'NONE', #327 ) ;
#200 = VERTEX_POINT ( 'NONE', #324 ) ;
#201 = VERTEX_POINT ( 'NONE', #328 ) ;
#202 = VERTEX_POINT ( 'NONE', #261 ) ;
#203 = VERTEX_POINT ( 'NONE', #329 ) ;
#204 = VERTEX_POINT ( 'NONE', #330 ) ;
#205 = VERTEX_POINT ( 'NONE', #331 ) ;
#206 = VERTEX_POINT ( 'NONE', #332 ) ;
#207 = VERTEX_POINT ( 'NONE', #333 ) ;
#208 = VERTEX_POINT ( 'NONE', #317 ) ;
#209 = VERTEX_POINT ( 'NONE', #318 ) ;
#210 = DIRECTION ( 'NONE',  ( -1.000000000000000000, 0.0000000000000000000, 0.0000000000000000000 ) ) ;
#211 = CARTESIAN_POINT ( 'NONE',  ( 0.0000000000000000000, 0.3799999999999998900, 0.9700000000000002000 ) ) ;
#212 = DIRECTION ( 'NONE',  ( -1.000000000000000000, 0.0000000000000000000, 0.0000000000000000000 ) ) ;
#213 = DIRECTION ( 'NONE',  ( 0.0000000000000000000, 0.0000000000000000000, 1.000000000000000000 ) ) ;
#214 = DIRECTION ( 'NONE',  ( 0.0000000000000000000, 0.0000000000000000000, -1.000000000000000000 ) ) ;
#215 = CARTESIAN_POINT ( 'NONE',  ( 2.279999999999999800, -0.3799999999999998900, -0.9699999999999996400 ) ) ;
#216 = ORIENTED_EDGE ( 'NONE', *, *, #25, .F. ) ;
#217 = ADVANCED_FACE ( 'NONE', ( #124 ), #319, .F. ) ;
#218 = ADVANCED_FACE ( 'NONE', ( #116 ), #320, .F. ) ;
#219 = ADVANCED_FACE ( 'NONE', ( #121 ), #254, .F. ) ;
#220 = ADVANCED_FACE ( 'NONE', ( #113 ), #251, .T. ) ;
#221 = ADVANCED_FACE ( 'NONE', ( #119 ), #122, .T. ) ;
#222 = ADVANCED_FACE ( 'NONE', ( #125 ), #143, .T. ) ;
#223 = ADVANCED_FACE ( 'NONE', ( #126 ), #95, .T. ) ;
#224 = ADVANCED_FACE ( 'NONE', ( #120 ), #98, .T. ) ;
#225 = ADVANCED_FACE ( 'NONE', ( #123 ), #80, .F. ) ;
#226 = DIMENSIONAL_EXPONENTS ( 1.000000000000000000, 0.0000000000000000000, 0.0000000000000000000, 0.0000000000000000000, 0.0000000000000000000, 0.0000000000000000000, 0.0000000000000000000 ) ;
#227 = ADVANCED_FACE ( 'NONE', ( #96 ), #86, .F. ) ;
#228 = ORIENTED_EDGE ( 'NONE', *, *, #172, .F. ) ;
#229 = EDGE_LOOP ( 'NONE', ( #36, #35, #32, #34, #315, #316, #314, #307 ) ) ;
#230 = VERTEX_POINT ( 'NONE', #87 ) ;
#231 = EDGE_LOOP ( 'NONE', ( #306, #308, #309, #216 ) ) ;
#232 = EDGE_LOOP ( 'NONE', ( #181, #182, #183, #184 ) ) ;
#233 = EDGE_LOOP ( 'NONE', ( #173, #174, #175, #176 ) ) ;
#234 = DIRECTION ( 'NONE',  ( 0.0000000000000000000, 0.0000000000000000000, 1.000000000000000000 ) ) ;
#235 = DIRECTION ( 'NONE',  ( -1.000000000000000000, 0.0000000000000000000, 0.0000000000000000000 ) ) ;
#236 = DIRECTION ( 'NONE',  ( 0.0000000000000000000, 0.0000000000000000000, 1.000000000000000000 ) ) ;
#237 = CARTESIAN_POINT ( 'NONE',  ( 2.279999999999999800, 0.3799999999999998900, 0.9700000000000002000 ) ) ;
#238 = DIRECTION ( 'NONE',  ( 0.0000000000000000000, 0.0000000000000000000, 1.000000000000000000 ) ) ;
#239 = DIRECTION ( 'NONE',  ( -1.000000000000000000, 0.0000000000000000000, 0.0000000000000000000 ) ) ;
#240 = CARTESIAN_POINT ( 'NONE',  ( 0.0000000000000000000, 0.5799999999999999600, 1.170000000000000200 ) ) ;
#241 = CARTESIAN_POINT ( 'NONE',  ( 2.279999999999999800, 0.3799999999999998900, -0.9699999999999996400 ) ) ;
#242 = CARTESIAN_POINT ( 'NONE',  ( 0.0000000000000000000, 0.0000000000000000000, 0.0000000000000000000 ) ) ;
#243 = DIRECTION ( 'NONE',  ( -1.000000000000000000, 0.0000000000000000000, 0.0000000000000000000 ) ) ;
#244 = DIRECTION ( 'NONE',  ( -1.000000000000000000, 0.0000000000000000000, 0.0000000000000000000 ) ) ;
#245 = DIRECTION ( 'NONE',  ( 0.0000000000000000000, 0.0000000000000000000, 1.000000000000000000 ) ) ;
#246 = DIRECTION ( 'NONE',  ( -1.000000000000000000, 0.0000000000000000000, 0.0000000000000000000 ) ) ;
#247 = CARTESIAN_POINT ( 'NONE',  ( 2.279999999999999800, -0.3799999999999998900, 0.9700000000000002000 ) ) ;
#248 = DIRECTION ( 'NONE',  ( 0.0000000000000000000, 0.0000000000000000000, 1.000000000000000000 ) ) ;
#249 = CARTESIAN_POINT ( 'NONE',  ( 2.279999999999999800, -0.3799999999999998900, -0.9699999999999996400 ) ) ;
#250 = CARTESIAN_POINT ( 'NONE',  ( 2.279999999999999800, -0.5799999999999999600, 1.170000000000000200 ) ) ;
#251 = PLANE ( 'NONE',  #277 ) ;
#252 = DIRECTION ( 'NONE',  ( -0.0000000000000000000, 1.000000000000000000, 0.0000000000000000000 ) ) ;
#253 = DIRECTION ( 'NONE',  ( 0.0000000000000000000, -0.0000000000000000000, 1.000000000000000000 ) ) ;
#254 = PLANE ( 'NONE',  #276 ) ;
#255 = CARTESIAN_POINT ( 'NONE',  ( 2.279999999999999800, -0.5799999999999999600, -1.169999999999999700 ) ) ;
#256 = DIRECTION ( 'NONE',  ( 0.0000000000000000000, 0.0000000000000000000, 1.000000000000000000 ) ) ;
#257 = DIRECTION ( 'NONE',  ( 1.000000000000000000, 0.0000000000000000000, -0.0000000000000000000 ) ) ;
#258 = CARTESIAN_POINT ( 'NONE',  ( 2.279999999999999800, 0.3799999999999998900, -0.9699999999999996400 ) ) ;
#259 = DIRECTION ( 'NONE',  ( 1.000000000000000000, -0.0000000000000000000, -0.0000000000000000000 ) ) ;
#260 = CARTESIAN_POINT ( 'NONE',  ( 0.0000000000000000000, -0.5799999999999999600, -1.169999999999999700 ) ) ;
#261 = CARTESIAN_POINT ( 'NONE',  ( 2.279999999999999800, 0.3799999999999998900, 1.170000000000000200 ) ) ;
#262 = DIRECTION ( 'NONE',  ( 0.0000000000000000000, 1.000000000000000000, 0.0000000000000000000 ) ) ;
#263 = DIRECTION ( 'NONE',  ( -0.0000000000000000000, -1.000000000000000000, -0.0000000000000000000 ) ) ;
#264 = CARTESIAN_POINT ( 'NONE',  ( 2.279999999999999800, 0.5799999999999999600, -0.9699999999999996400 ) ) ;
#265 = DIRECTION ( 'NONE',  ( -0.0000000000000000000, -1.000000000000000000, -0.0000000000000000000 ) ) ;
#266 = CARTESIAN_POINT ( 'NONE',  ( 0.0000000000000000000, 0.3799999999999998900, 1.170000000000000200 ) ) ;
#267 = EDGE_CURVE ( 'NONE', #195, #198, #99, .T. ) ;
#268 = AXIS2_PLACEMENT_3D ( 'NONE', #211, #212, #213 ) ;
#269 = AXIS2_PLACEMENT_3D ( 'NONE', #335, #336, #337 ) ;
#270 = AXIS2_PLACEMENT_3D ( 'NONE', #215, #161, #162 ) ;
#271 = AXIS2_PLACEMENT_3D ( 'NONE', #164, #165, #166 ) ;
#272 = AXIS2_PLACEMENT_3D ( 'NONE', #258, #17, #18 ) ;
#273 = AXIS2_PLACEMENT_3D ( 'NONE', #20, #21, #22 ) ;
#274 = AXIS2_PLACEMENT_3D ( 'NONE', #321, #322, #323 ) ;
#275 = AXIS2_PLACEMENT_3D ( 'NONE', #250, #252, #253 ) ;
#276 = AXIS2_PLACEMENT_3D ( 'NONE', #255, #256, #257 ) ;
#277 = AXIS2_PLACEMENT_3D ( 'NONE', #242, #244, #245 ) ;
#278 = AXIS2_PLACEMENT_3D ( 'NONE', #247, #246, #248 ) ;
#279 = AXIS2_PLACEMENT_3D ( 'NONE', #249, #243, #234 ) ;
#280 = AXIS2_PLACEMENT_3D ( 'NONE', #237, #235, #238 ) ;
#281 = AXIS2_PLACEMENT_3D ( 'NONE', #241, #239, #236 ) ;
#282 = AXIS2_PLACEMENT_3D ( 'NONE', #83, #84, #85 ) ;
#283 = AXIS2_PLACEMENT_3D ( 'NONE', #67, #68, #69 ) ;
#284 = AXIS2_PLACEMENT_3D ( 'NONE', #81, #88, #89 ) ;
#285 = AXIS2_PLACEMENT_3D ( 'NONE', #38, #39, #40 ) ;
#286 =( GEOMETRIC_REPRESENTATION_CONTEXT ( 3 ) GLOBAL_UNCERTAINTY_ASSIGNED_CONTEXT ( ( #191 ) ) GLOBAL_UNIT_ASSIGNED_CONTEXT ( ( #42, #43, #44 ) ) REPRESENTATION_CONTEXT ( 'NONE', 'WORKASPACE' ) );
#287 = AXIS2_PLACEMENT_3D ( 'NONE', #66, #65, #47 ) ;
#288 = CC_DESIGN_PERSON_AND_ORGANIZATION_ASSIGNMENT ( #339, #49, ( #57 ) ) ;
#289 = PRODUCT_DEFINITION ( 'UNKNOWN', '', #294, #51 ) ;
#290 = APPROVAL ( #3, 'UNSPECIFIED' ) ;
#291 = CC_DESIGN_APPROVAL ( #290, ( #289 ) ) ;
#292 = CC_DESIGN_PERSON_AND_ORGANIZATION_ASSIGNMENT ( #347, #5, ( #289 ) ) ;
#293 = CC_DESIGN_DATE_AND_TIME_ASSIGNMENT ( #351, #6, ( #289 ) ) ;
#294 = PRODUCT_DEFINITION_FORMATION_WITH_SPECIFIED_SOURCE ( 'ANY', '', #57, .NOT_KNOWN. ) ;
#295 = APPROVAL ( #7, 'UNSPECIFIED' ) ;
#296 = CC_DESIGN_APPROVAL ( #295, ( #294 ) ) ;
#297 = CC_DESIGN_PERSON_AND_ORGANIZATION_ASSIGNMENT ( #359, #9, ( #294 ) ) ;
#298 = CC_DESIGN_PERSON_AND_ORGANIZATION_ASSIGNMENT ( #360, #10, ( #294 ) ) ;
#299 = SECURITY_CLASSIFICATION ( '', '', #11 ) ;
#300 = CC_DESIGN_PERSON_AND_ORGANIZATION_ASSIGNMENT ( #361, #12, ( #299 ) ) ;
#301 = CC_DESIGN_DATE_AND_TIME_ASSIGNMENT ( #365, #13, ( #299 ) ) ;
#302 = APPROVAL ( #14, 'UNSPECIFIED' ) ;
#303 = CC_DESIGN_APPROVAL ( #302, ( #299 ) ) ;
#304 = CC_DESIGN_SECURITY_CLASSIFICATION ( #299, ( #294 ) ) ;
#305 = PRODUCT_RELATED_PRODUCT_CATEGORY ( 'detail', '', ( #57 ) ) ;
#306 = ORIENTED_EDGE ( 'NONE', *, *, #380, .F. ) ;
#307 = ORIENTED_EDGE ( 'NONE', *, *, #29, .T. ) ;
#308 = ORIENTED_EDGE ( 'NONE', *, *, #312, .F. ) ;
#309 = ORIENTED_EDGE ( 'NONE', *, *, #27, .F. ) ;
#310 = CARTESIAN_POINT ( 'NONE',  ( 2.279999999999999800, 0.5799999999999999600, -0.9699999999999996400 ) ) ;
#311 = PERSON ( 'UNSPECIFIED', 'UNSPECIFIED', 'UNSPECIFIED', ('UNSPECIFIED'), ('UNSPECIFIED'), ('UNSPECIFIED') ) ;
#312 = EDGE_CURVE ( 'NONE', #207, #200, #97, .T. ) ;
#313 = MANIFOLD_SOLID_BREP ( 'Fillet1', #53 ) ;
#314 = ORIENTED_EDGE ( 'NONE', *, *, #170, .F. ) ;
#315 = ORIENTED_EDGE ( 'NONE', *, *, #373, .F. ) ;
#316 = ORIENTED_EDGE ( 'NONE', *, *, #374, .T. ) ;
#317 = CARTESIAN_POINT ( 'NONE',  ( 0.0000000000000000000, -0.5799999999999999600, -0.9699999999999996400 ) ) ;
#318 = CARTESIAN_POINT ( 'NONE',  ( 0.0000000000000000000, 0.3799999999999998900, -1.169999999999999700 ) ) ;
#319 = PLANE ( 'NONE',  #274 ) ;
#320 = PLANE ( 'NONE',  #275 ) ;
#321 = CARTESIAN_POINT ( 'NONE',  ( 2.279999999999999800, 0.0000000000000000000, 0.0000000000000000000 ) ) ;
#322 = DIRECTION ( 'NONE',  ( -1.000000000000000000, 0.0000000000000000000, 0.0000000000000000000 ) ) ;
#323 = DIRECTION ( 'NONE',  ( 0.0000000000000000000, 0.0000000000000000000, 1.000000000000000000 ) ) ;
#324 = CARTESIAN_POINT ( 'NONE',  ( 2.279999999999999800, -0.3799999999999998900, 1.170000000000000200 ) ) ;
#325 = CARTESIAN_POINT ( 'NONE',  ( 2.279999999999999800, 0.5799999999999999600, 0.9700000000000002000 ) ) ;
#326 = CARTESIAN_POINT ( 'NONE',  ( 0.0000000000000000000, 0.5799999999999999600, 0.9700000000000002000 ) ) ;
#327 = CARTESIAN_POINT ( 'NONE',  ( 0.0000000000000000000, 0.5799999999999999600, -0.9699999999999996400 ) ) ;
#328 = CARTESIAN_POINT ( 'NONE',  ( 2.279999999999999800, 0.3799999999999998900, -1.169999999999999700 ) ) ;
#329 = CARTESIAN_POINT ( 'NONE',  ( 0.0000000000000000000, -0.3799999999999998900, -1.169999999999999700 ) ) ;
#330 = CARTESIAN_POINT ( 'NONE',  ( 2.279999999999999800, -0.5799999999999999600, -0.9699999999999996400 ) ) ;
#331 = CARTESIAN_POINT ( 'NONE',  ( 2.279999999999999800, -0.5799999999999999600, 0.9700000000000002000 ) ) ;
#332 = CARTESIAN_POINT ( 'NONE',  ( 0.0000000000000000000, -0.5799999999999999600, 0.9700000000000002000 ) ) ;
#333 = CARTESIAN_POINT ( 'NONE',  ( 0.0000000000000000000, -0.3799999999999998900, 1.170000000000000200 ) ) ;
#334 = CARTESIAN_POINT ( 'NONE',  ( 2.279999999999999800, -0.5799999999999999600, -1.169999999999999700 ) ) ;
#335 = CARTESIAN_POINT ( 'NONE',  ( 0.0000000000000000000, -0.3799999999999998900, 0.9700000000000002000 ) ) ;
#336 = DIRECTION ( 'NONE',  ( -1.000000000000000000, 0.0000000000000000000, 0.0000000000000000000 ) ) ;
#337 = DIRECTION ( 'NONE',  ( 0.0000000000000000000, 0.0000000000000000000, 1.000000000000000000 ) ) ;
#338 = ORGANIZATION ( 'UNSPECIFIED', 'UNSPECIFIED', '' ) ;
#339 = PERSON_AND_ORGANIZATION ( #311, #338 ) ;
#340 = PERSON_AND_ORGANIZATION ( #311, #338 ) ;
#341 = APPROVAL_PERSON_ORGANIZATION ( #340, #290, #4 ) ;
#342 = COORDINATED_UNIVERSAL_TIME_OFFSET ( 5, 0, .BEHIND. ) ;
#343 = LOCAL_TIME ( 14, 21, 22.00000000000000000, #342 ) ;
#344 = CALENDAR_DATE ( 2014, 22, 8 ) ;
#345 = DATE_AND_TIME ( #344, #343 ) ;
#346 = APPROVAL_DATE_TIME ( #345, #290 ) ;
#347 = PERSON_AND_ORGANIZATION ( #311, #338 ) ;
#348 = COORDINATED_UNIVERSAL_TIME_OFFSET ( 5, 0, .BEHIND. ) ;
#349 = LOCAL_TIME ( 14, 21, 22.00000000000000000, #348 ) ;
#350 = CALENDAR_DATE ( 2014, 22, 8 ) ;
#351 = DATE_AND_TIME ( #350, #349 ) ;
#352 = PERSON_AND_ORGANIZATION ( #311, #338 ) ;
#353 = APPROVAL_PERSON_ORGANIZATION ( #352, #295, #8 ) ;
#354 = COORDINATED_UNIVERSAL_TIME_OFFSET ( 5, 0, .BEHIND. ) ;
#355 = LOCAL_TIME ( 14, 21, 22.00000000000000000, #354 ) ;
#356 = CALENDAR_DATE ( 2014, 22, 8 ) ;
#357 = DATE_AND_TIME ( #356, #355 ) ;
#358 = APPROVAL_DATE_TIME ( #357, #295 ) ;
#359 = PERSON_AND_ORGANIZATION ( #311, #338 ) ;
#360 = PERSON_AND_ORGANIZATION ( #311, #338 ) ;
#361 = PERSON_AND_ORGANIZATION ( #311, #338 ) ;
#362 = COORDINATED_UNIVERSAL_TIME_OFFSET ( 5, 0, .BEHIND. ) ;
#363 = LOCAL_TIME ( 14, 21, 22.00000000000000000, #362 ) ;
#364 = CALENDAR_DATE ( 2014, 22, 8 ) ;
#365 = DATE_AND_TIME ( #364, #363 ) ;
#366 = PERSON_AND_ORGANIZATION ( #311, #338 ) ;
#367 = APPROVAL_PERSON_ORGANIZATION ( #366, #302, #15 ) ;
#368 = COORDINATED_UNIVERSAL_TIME_OFFSET ( 5, 0, .BEHIND. ) ;
#369 = LOCAL_TIME ( 14, 21, 22.00000000000000000, #368 ) ;
#370 = CALENDAR_DATE ( 2014, 22, 8 ) ;
#371 = DATE_AND_TIME ( #370, #369 ) ;
#372 = APPROVAL_DATE_TIME ( #371, #302 ) ;
#373 = EDGE_CURVE ( 'NONE', #199, #197, #102, .T. ) ;
#374 = EDGE_CURVE ( 'NONE', #199, #209, #100, .T. ) ;
#375 = EDGE_CURVE ( 'NONE', #202, #196, #105, .T. ) ;
#376 = EDGE_CURVE ( 'NONE', #206, #208, #106, .T. ) ;
#377 = EDGE_CURVE ( 'NONE', #208, #204, #108, .T. ) ;
#378 = EDGE_CURVE ( 'NONE', #209, #201, #110, .T. ) ;
#379 = EDGE_CURVE ( 'NONE', #230, #203, #60, .T. ) ;
#380 = EDGE_CURVE ( 'NONE', #200, #205, #59, .T. ) ;
ENDSEC;
END-ISO-10303-21;
