ISO-10303-21;
HEADER;
FILE_DESCRIPTION (( 'STEP AP203' ),
    '1' );
FILE_NAME ('BH48AAW.STEP',
    '2014-08-22T18:21:47',
    ( 'Intern' ),
    ( '' ),
    'SwSTEP 2.0',
    'SolidWorks 2012',
    '' );
FILE_SCHEMA (( 'CONFIG_CONTROL_DESIGN' ));
ENDSEC;

DATA;
#1 = VERTEX_POINT ( 'NONE', #199 ) ;
#2 = VERTEX_POINT ( 'NONE', #200 ) ;
#3 = VERTEX_POINT ( 'NONE', #57 ) ;
#4 = APPLICATION_PROTOCOL_DEFINITION ( 'international standard', 'config_control_design', 1994, #151 ) ;
#5 = APPROVAL_STATUS ( 'not_yet_approved' ) ;
#6 = APPROVAL_ROLE ( '' ) ;
#7 = PERSON_AND_ORGANIZATION_ROLE ( 'creator' ) ;
#8 = DATE_TIME_ROLE ( 'creation_date' ) ;
#9 = APPROVAL_STATUS ( 'not_yet_approved' ) ;
#10 = APPROVAL_ROLE ( '' ) ;
#11 = PERSON_AND_ORGANIZATION_ROLE ( 'creator' ) ;
#12 = PERSON_AND_ORGANIZATION_ROLE ( 'design_supplier' ) ;
#13 = SECURITY_CLASSIFICATION_LEVEL ( 'unclassified' ) ;
#14 = PERSON_AND_ORGANIZATION_ROLE ( 'classification_officer' ) ;
#15 = DATE_TIME_ROLE ( 'classification_date' ) ;
#16 = APPROVAL_STATUS ( 'not_yet_approved' ) ;
#17 = APPROVAL_ROLE ( '' ) ;
#18 = EDGE_CURVE ( 'NONE', #2, #76, #275, .T. ) ;
#19 = PLANE ( 'NONE',  #332 ) ;
#20 = CARTESIAN_POINT ( 'NONE',  ( 2.279999999999999800, 0.5799999999999999600, 1.170000000000000200 ) ) ;
#21 = PLANE ( 'NONE',  #334 ) ;
#22 = CARTESIAN_POINT ( 'NONE',  ( 2.279999999999999800, -0.5799999999999999600, -1.169999999999999700 ) ) ;
#23 = DIRECTION ( 'NONE',  ( 0.0000000000000000000, 0.0000000000000000000, 1.000000000000000000 ) ) ;
#24 = DIRECTION ( 'NONE',  ( 1.000000000000000000, 0.0000000000000000000, -0.0000000000000000000 ) ) ;
#25 = PLANE ( 'NONE',  #333 ) ;
#26 = EDGE_CURVE ( 'NONE', #75, #288, #273, .T. ) ;
#27 = EDGE_CURVE ( 'NONE', #288, #47, #274, .T. ) ;
#28 = EDGE_CURVE ( 'NONE', #356, #293, #271, .T. ) ;
#29 = EDGE_CURVE ( 'NONE', #47, #1, #279, .T. ) ;
#30 = EDGE_CURVE ( 'NONE', #36, #3, #280, .T. ) ;
#31 = EDGE_CURVE ( 'NONE', #152, #2, #277, .T. ) ;
#32 = EDGE_CURVE ( 'NONE', #76, #357, #282, .T. ) ;
#33 = EDGE_CURVE ( 'NONE', #75, #289, #283, .T. ) ;
#34 = EDGE_CURVE ( 'NONE', #77, #288, #284, .T. ) ;
#35 = EDGE_CURVE ( 'NONE', #48, #49, #285, .T. ) ;
#36 = VERTEX_POINT ( 'NONE', #316 ) ;
#37 = DIRECTION ( 'NONE',  ( 0.0000000000000000000, -0.0000000000000000000, -1.000000000000000000 ) ) ;
#38 = CARTESIAN_POINT ( 'NONE',  ( 2.279999999999999800, -0.5799999999999999600, 1.170000000000000200 ) ) ;
#39 = DIRECTION ( 'NONE',  ( 0.0000000000000000000, 0.0000000000000000000, -1.000000000000000000 ) ) ;
#40 = DIRECTION ( 'NONE',  ( -1.000000000000000000, 0.0000000000000000000, -0.0000000000000000000 ) ) ;
#41 = CARTESIAN_POINT ( 'NONE',  ( 0.0000000000000000000, -0.5799999999999999600, -1.169999999999999700 ) ) ;
#42 = CARTESIAN_POINT ( 'NONE',  ( 2.279999999999999800, -0.3799999999999998900, -1.169999999999999700 ) ) ;
#43 = CARTESIAN_POINT ( 'NONE',  ( 2.279999999999999800, 0.5799999999999999600, 0.9700000000000002000 ) ) ;
#44 = CARTESIAN_POINT ( 'NONE',  ( 2.279999999999999800, 0.5799999999999999600, -0.9699999999999996400 ) ) ;
#45 = DESIGN_CONTEXT ( 'detailed design', #151, 'design' ) ;
#46 = PRODUCT_DEFINITION_SHAPE ( 'NONE', 'NONE',  #339 ) ;
#47 = VERTEX_POINT ( 'NONE', #309 ) ;
#48 = VERTEX_POINT ( 'NONE', #295 ) ;
#49 = VERTEX_POINT ( 'NONE', #305 ) ;
#50 = PRODUCT ( 'BH48AAW', 'BH48AAW', '', ( #149 ) ) ;
#51 = ORIENTED_EDGE ( 'NONE', *, *, #377, .T. ) ;
#52 = ORIENTED_EDGE ( 'NONE', *, *, #374, .T. ) ;
#53 = EDGE_LOOP ( 'NONE', ( #162, #74, #270, #164 ) ) ;
#54 = FACE_OUTER_BOUND ( 'NONE', #159, .T. ) ;
#55 = CLOSED_SHELL ( 'NONE', ( #190, #191, #192, #287, #184, #185, #186, #187, #188, #189 ) ) ;
#56 = DIRECTION ( 'NONE',  ( 1.000000000000000000, -0.0000000000000000000, -0.0000000000000000000 ) ) ;
#57 = CARTESIAN_POINT ( 'NONE',  ( 0.0000000000000000000, 0.3799999999999998900, -1.169999999999999700 ) ) ;
#58 = ORIENTED_EDGE ( 'NONE', *, *, #30, .F. ) ;
#59 = ORIENTED_EDGE ( 'NONE', *, *, #194, .F. ) ;
#60 = ORIENTED_EDGE ( 'NONE', *, *, #26, .F. ) ;
#61 = ORIENTED_EDGE ( 'NONE', *, *, #33, .T. ) ;
#62 = ORIENTED_EDGE ( 'NONE', *, *, #197, .F. ) ;
#63 = ORIENTED_EDGE ( 'NONE', *, *, #35, .T. ) ;
#64 = ORIENTED_EDGE ( 'NONE', *, *, #377, .F. ) ;
#65 = ORIENTED_EDGE ( 'NONE', *, *, #30, .T. ) ;
#66 = ORIENTED_EDGE ( 'NONE', *, *, #195, .F. ) ;
#67 = ORIENTED_EDGE ( 'NONE', *, *, #34, .T. ) ;
#68 = ORIENTED_EDGE ( 'NONE', *, *, #28, .F. ) ;
#69 = ORIENTED_EDGE ( 'NONE', *, *, #379, .F. ) ;
#70 = ORIENTED_EDGE ( 'NONE', *, *, #33, .F. ) ;
#71 = ORIENTED_EDGE ( 'NONE', *, *, #378, .F. ) ;
#72 = ORIENTED_EDGE ( 'NONE', *, *, #29, .F. ) ;
#73 = EDGE_LOOP ( 'NONE', ( #51, #290, #163, #161 ) ) ;
#74 = ORIENTED_EDGE ( 'NONE', *, *, #379, .T. ) ;
#75 = VERTEX_POINT ( 'NONE', #297 ) ;
#76 = VERTEX_POINT ( 'NONE', #298 ) ;
#77 = VERTEX_POINT ( 'NONE', #299 ) ;
#78 = DIRECTION ( 'NONE',  ( 0.0000000000000000000, 0.0000000000000000000, 1.000000000000000000 ) ) ;
#79 = DIRECTION ( 'NONE',  ( 0.0000000000000000000, 0.0000000000000000000, 1.000000000000000000 ) ) ;
#80 = CARTESIAN_POINT ( 'NONE',  ( 2.279999999999999800, -0.3799999999999998900, -0.9699999999999996400 ) ) ;
#81 = DIRECTION ( 'NONE',  ( -1.000000000000000000, 0.0000000000000000000, 0.0000000000000000000 ) ) ;
#82 = DIRECTION ( 'NONE',  ( 0.0000000000000000000, 0.0000000000000000000, 1.000000000000000000 ) ) ;
#83 = DIRECTION ( 'NONE',  ( -1.000000000000000000, 0.0000000000000000000, 0.0000000000000000000 ) ) ;
#84 = DIRECTION ( 'NONE',  ( 0.0000000000000000000, 0.0000000000000000000, 1.000000000000000000 ) ) ;
#85 = CARTESIAN_POINT ( 'NONE',  ( 2.279999999999999800, 0.3799999999999998900, 0.9700000000000002000 ) ) ;
#86 = DIRECTION ( 'NONE',  ( -1.000000000000000000, 0.0000000000000000000, 0.0000000000000000000 ) ) ;
#87 = ORIENTED_EDGE ( 'NONE', *, *, #375, .T. ) ;
#88 = ORIENTED_EDGE ( 'NONE', *, *, #28, .T. ) ;
#89 = ORIENTED_EDGE ( 'NONE', *, *, #373, .T. ) ;
#90 = ORIENTED_EDGE ( 'NONE', *, *, #29, .T. ) ;
#91 = ORIENTED_EDGE ( 'NONE', *, *, #376, .T. ) ;
#92 = ORIENTED_EDGE ( 'NONE', *, *, #31, .T. ) ;
#93 = ORIENTED_EDGE ( 'NONE', *, *, #18, .T. ) ;
#94 = ORIENTED_EDGE ( 'NONE', *, *, #32, .T. ) ;
#95 = ORIENTED_EDGE ( 'NONE', *, *, #27, .F. ) ;
#96 = ORIENTED_EDGE ( 'NONE', *, *, #34, .F. ) ;
#97 = ORIENTED_EDGE ( 'NONE', *, *, #196, .F. ) ;
#98 = ORIENTED_EDGE ( 'NONE', *, *, #32, .F. ) ;
#99 = ORIENTED_EDGE ( 'NONE', *, *, #198, .F. ) ;
#100 = ORIENTED_EDGE ( 'NONE', *, *, #35, .F. ) ;
#101 = ORIENTED_EDGE ( 'NONE', *, *, #372, .F. ) ;
#102 = ORIENTED_EDGE ( 'NONE', *, *, #31, .F. ) ;
#103 = ORIENTED_EDGE ( 'NONE', *, *, #374, .F. ) ;
#104 = FACE_OUTER_BOUND ( 'NONE', #157, .T. ) ;
#105 = FACE_OUTER_BOUND ( 'NONE', #156, .T. ) ;
#106 = FACE_OUTER_BOUND ( 'NONE', #154, .T. ) ;
#107 = FACE_OUTER_BOUND ( 'NONE', #158, .T. ) ;
#108 = CYLINDRICAL_SURFACE ( 'NONE', #328, 0.2000000000000000400 ) ;
#109 = FACE_OUTER_BOUND ( 'NONE', #53, .T. ) ;
#110 = CYLINDRICAL_SURFACE ( 'NONE', #329, 0.2000000000000000400 ) ;
#111 = FACE_OUTER_BOUND ( 'NONE', #73, .T. ) ;
#112 = CYLINDRICAL_SURFACE ( 'NONE', #330, 0.2000000000000000400 ) ;
#113 = LINE ( 'NONE', #42, #120 ) ;
#114 = CYLINDRICAL_SURFACE ( 'NONE', #331, 0.2000000000000000400 ) ;
#115 = LINE ( 'NONE', #41, #119 ) ;
#116 = VECTOR ( 'NONE', #169, 39.37007874015748100 ) ;
#117 = LINE ( 'NONE', #44, #116 ) ;
#118 = VECTOR ( 'NONE', #259, 39.37007874015748100 ) ;
#119 = VECTOR ( 'NONE', #171, 39.37007874015748100 ) ;
#120 = VECTOR ( 'NONE', #172, 39.37007874015748100 ) ;
#121 = FACE_OUTER_BOUND ( 'NONE', #160, .T. ) ;
#122 = LINE ( 'NONE', #173, #123 ) ;
#123 = VECTOR ( 'NONE', #174, 39.37007874015748100 ) ;
#124 = VECTOR ( 'NONE', #251, 39.37007874015748100 ) ;
#125 = LINE ( 'NONE', #43, #126 ) ;
#126 = VECTOR ( 'NONE', #175, 39.37007874015748100 ) ;
#127 = VECTOR ( 'NONE', #253, 39.37007874015748100 ) ;
#128 = LINE ( 'NONE', #252, #127 ) ;
#129 = LINE ( 'NONE', #178, #124 ) ;
#130 = LINE ( 'NONE', #254, #132 ) ;
#131 = LINE ( 'NONE', #256, #134 ) ;
#132 = VECTOR ( 'NONE', #255, 39.37007874015748100 ) ;
#133 = LINE ( 'NONE', #258, #118 ) ;
#134 = VECTOR ( 'NONE', #257, 39.37007874015748100 ) ;
#135 = LINE ( 'NONE', #260, #207 ) ;
#136 = CARTESIAN_POINT ( 'NONE',  ( 2.279999999999999800, -0.5799999999999999600, 0.9700000000000002000 ) ) ;
#137 = DIRECTION ( 'NONE',  ( -1.000000000000000000, 0.0000000000000000000, 0.0000000000000000000 ) ) ;
#138 = CARTESIAN_POINT ( 'NONE',  ( 2.279999999999999800, -0.3799999999999998900, 1.170000000000000200 ) ) ;
#139 = DIRECTION ( 'NONE',  ( 1.000000000000000000, -0.0000000000000000000, -0.0000000000000000000 ) ) ;
#140 = CARTESIAN_POINT ( 'NONE',  ( 0.0000000000000000000, 0.0000000000000000000, 0.0000000000000000000 ) ) ;
#141 =( LENGTH_UNIT ( ) NAMED_UNIT ( * ) SI_UNIT ( $, .METRE. ) );
#142 =( CONVERSION_BASED_UNIT ( 'INCH', #214 ) LENGTH_UNIT ( ) NAMED_UNIT ( #193 ) );
#143 =( NAMED_UNIT ( * ) PLANE_ANGLE_UNIT ( ) SI_UNIT ( $, .RADIAN. ) );
#144 =( NAMED_UNIT ( * ) SI_UNIT ( $, .STERADIAN. ) SOLID_ANGLE_UNIT ( ) );
#145 = APPLICATION_PROTOCOL_DEFINITION ( 'international standard', 'config_control_design', 1994, #146 ) ;
#146 = APPLICATION_CONTEXT ( 'configuration controlled 3d designs of mechanical parts and assemblies' ) ;
#147 = DIRECTION ( 'NONE',  ( 0.0000000000000000000, 0.0000000000000000000, 1.000000000000000000 ) ) ;
#148 = DIRECTION ( 'NONE',  ( 1.000000000000000000, 0.0000000000000000000, 0.0000000000000000000 ) ) ;
#149 = MECHANICAL_CONTEXT ( 'NONE', #146, 'mechanical' ) ;
#150 = PERSON_AND_ORGANIZATION_ROLE ( 'design_owner' ) ;
#151 = APPLICATION_CONTEXT ( 'configuration controlled 3d designs of mechanical parts and assemblies' ) ;
#152 = VERTEX_POINT ( 'NONE', #304 ) ;
#153 = EDGE_LOOP ( 'NONE', ( #68, #69, #70, #71 ) ) ;
#154 = EDGE_LOOP ( 'NONE', ( #72, #95, #96, #97 ) ) ;
#155 = EDGE_LOOP ( 'NONE', ( #60, #61, #62, #63, #64, #65, #66, #67 ) ) ;
#156 = EDGE_LOOP ( 'NONE', ( #102, #103, #58, #59 ) ) ;
#157 = EDGE_LOOP ( 'NONE', ( #98, #99, #100, #101 ) ) ;
#158 = EDGE_LOOP ( 'NONE', ( #292, #294, #291, #52 ) ) ;
#159 = EDGE_LOOP ( 'NONE', ( #87, #88, #89, #90, #91, #92, #93, #94 ) ) ;
#160 = EDGE_LOOP ( 'NONE', ( #165, #166, #167, #168 ) ) ;
#161 = ORIENTED_EDGE ( 'NONE', *, *, #194, .T. ) ;
#162 = ORIENTED_EDGE ( 'NONE', *, *, #197, .T. ) ;
#163 = ORIENTED_EDGE ( 'NONE', *, *, #18, .F. ) ;
#164 = ORIENTED_EDGE ( 'NONE', *, *, #372, .T. ) ;
#165 = ORIENTED_EDGE ( 'NONE', *, *, #373, .F. ) ;
#166 = ORIENTED_EDGE ( 'NONE', *, *, #378, .T. ) ;
#167 = ORIENTED_EDGE ( 'NONE', *, *, #26, .T. ) ;
#168 = ORIENTED_EDGE ( 'NONE', *, *, #27, .T. ) ;
#169 = DIRECTION ( 'NONE',  ( -1.000000000000000000, 0.0000000000000000000, 0.0000000000000000000 ) ) ;
#170 = CARTESIAN_POINT ( 'NONE',  ( 0.0000000000000000000, -0.5799999999999999600, -0.9699999999999996400 ) ) ;
#171 = DIRECTION ( 'NONE',  ( 0.0000000000000000000, 1.000000000000000000, 0.0000000000000000000 ) ) ;
#172 = DIRECTION ( 'NONE',  ( -1.000000000000000000, 0.0000000000000000000, 0.0000000000000000000 ) ) ;
#173 = CARTESIAN_POINT ( 'NONE',  ( 0.0000000000000000000, -0.5799999999999999600, 1.170000000000000200 ) ) ;
#174 = DIRECTION ( 'NONE',  ( -0.0000000000000000000, -1.000000000000000000, -0.0000000000000000000 ) ) ;
#175 = DIRECTION ( 'NONE',  ( 1.000000000000000000, -0.0000000000000000000, -0.0000000000000000000 ) ) ;
#176 = PLANE ( 'NONE',  #336 ) ;
#177 = CARTESIAN_POINT ( 'NONE',  ( 2.279999999999999800, -0.5799999999999999600, 1.170000000000000200 ) ) ;
#178 = CARTESIAN_POINT ( 'NONE',  ( 2.279999999999999800, 0.3799999999999998900, 1.170000000000000200 ) ) ;
#179 = DIRECTION ( 'NONE',  ( -0.0000000000000000000, 1.000000000000000000, 0.0000000000000000000 ) ) ;
#180 = DIRECTION ( 'NONE',  ( 0.0000000000000000000, -0.0000000000000000000, 1.000000000000000000 ) ) ;
#181 = CARTESIAN_POINT ( 'NONE',  ( 2.279999999999999800, -0.5799999999999999600, 0.9700000000000002000 ) ) ;
#182 = CARTESIAN_POINT ( 'NONE',  ( 0.0000000000000000000, -0.3799999999999998900, 1.170000000000000200 ) ) ;
#183 = CARTESIAN_POINT ( 'NONE',  ( 2.279999999999999800, -0.3799999999999998900, 1.170000000000000200 ) ) ;
#184 = ADVANCED_FACE ( 'NONE', ( #54 ), #300, .F. ) ;
#185 = ADVANCED_FACE ( 'NONE', ( #281 ), #262, .T. ) ;
#186 = ADVANCED_FACE ( 'NONE', ( #286 ), #108, .T. ) ;
#187 = ADVANCED_FACE ( 'NONE', ( #106 ), #110, .T. ) ;
#188 = ADVANCED_FACE ( 'NONE', ( #104 ), #112, .T. ) ;
#189 = ADVANCED_FACE ( 'NONE', ( #105 ), #114, .T. ) ;
#190 = ADVANCED_FACE ( 'NONE', ( #107 ), #19, .F. ) ;
#191 = ADVANCED_FACE ( 'NONE', ( #111 ), #25, .F. ) ;
#192 = ADVANCED_FACE ( 'NONE', ( #109 ), #21, .F. ) ;
#193 = DIMENSIONAL_EXPONENTS ( 1.000000000000000000, 0.0000000000000000000, 0.0000000000000000000, 0.0000000000000000000, 0.0000000000000000000, 0.0000000000000000000, 0.0000000000000000000 ) ;
#194 = EDGE_CURVE ( 'NONE', #2, #36, #117, .T. ) ;
#195 = EDGE_CURVE ( 'NONE', #77, #3, #115, .T. ) ;
#196 = EDGE_CURVE ( 'NONE', #1, #77, #113, .T. ) ;
#197 = EDGE_CURVE ( 'NONE', #48, #289, #122, .T. ) ;
#198 = EDGE_CURVE ( 'NONE', #49, #76, #125, .T. ) ;
#199 = CARTESIAN_POINT ( 'NONE',  ( 2.279999999999999800, -0.3799999999999998900, -1.169999999999999700 ) ) ;
#200 = CARTESIAN_POINT ( 'NONE',  ( 2.279999999999999800, 0.5799999999999999600, -0.9699999999999996400 ) ) ;
#201 = CARTESIAN_POINT ( 'NONE',  ( 2.279999999999999800, -0.5799999999999999600, -0.9699999999999996400 ) ) ;
#202 = DIRECTION ( 'NONE',  ( -0.0000000000000000000, -0.0000000000000000000, 1.000000000000000000 ) ) ;
#203 = DIRECTION ( 'NONE',  ( 0.0000000000000000000, 0.0000000000000000000, -1.000000000000000000 ) ) ;
#204 = CARTESIAN_POINT ( 'NONE',  ( 0.0000000000000000000, -0.5799999999999999600, 1.170000000000000200 ) ) ;
#205 = DIRECTION ( 'NONE',  ( 1.000000000000000000, -0.0000000000000000000, -0.0000000000000000000 ) ) ;
#206 = DIRECTION ( 'NONE',  ( 0.0000000000000000000, 0.0000000000000000000, 1.000000000000000000 ) ) ;
#207 = VECTOR ( 'NONE', #261, 39.37007874015748100 ) ;
#208 = LINE ( 'NONE', #138, #212 ) ;
#209 = LINE ( 'NONE', #136, #210 ) ;
#210 = VECTOR ( 'NONE', #137, 39.37007874015748100 ) ;
#211 = ORGANIZATION ( 'UNSPECIFIED', 'UNSPECIFIED', '' ) ;
#212 = VECTOR ( 'NONE', #139, 39.37007874015748100 ) ;
#213 = SHAPE_DEFINITION_REPRESENTATION ( #46, #248 ) ;
#214 = LENGTH_MEASURE_WITH_UNIT ( LENGTH_MEASURE( 0.02539999999999999900 ), #141 );
#215 = PERSON_AND_ORGANIZATION ( #363, #211 ) ;
#216 = PERSON_AND_ORGANIZATION ( #363, #211 ) ;
#217 = APPROVAL_PERSON_ORGANIZATION ( #216, #340, #6 ) ;
#218 = COORDINATED_UNIVERSAL_TIME_OFFSET ( 5, 0, .BEHIND. ) ;
#219 = LOCAL_TIME ( 14, 21, 47.00000000000000000, #218 ) ;
#220 = CALENDAR_DATE ( 2014, 22, 8 ) ;
#221 = DATE_AND_TIME ( #220, #219 ) ;
#222 = APPROVAL_DATE_TIME ( #221, #340 ) ;
#223 = PERSON_AND_ORGANIZATION ( #363, #211 ) ;
#224 = COORDINATED_UNIVERSAL_TIME_OFFSET ( 5, 0, .BEHIND. ) ;
#225 = LOCAL_TIME ( 14, 21, 47.00000000000000000, #224 ) ;
#226 = CALENDAR_DATE ( 2014, 22, 8 ) ;
#227 = DATE_AND_TIME ( #226, #225 ) ;
#228 = PERSON_AND_ORGANIZATION ( #363, #211 ) ;
#229 = APPROVAL_PERSON_ORGANIZATION ( #228, #345, #10 ) ;
#230 = COORDINATED_UNIVERSAL_TIME_OFFSET ( 5, 0, .BEHIND. ) ;
#231 = LOCAL_TIME ( 14, 21, 47.00000000000000000, #230 ) ;
#232 = CALENDAR_DATE ( 2014, 22, 8 ) ;
#233 = DATE_AND_TIME ( #232, #231 ) ;
#234 = APPROVAL_DATE_TIME ( #233, #345 ) ;
#235 = PERSON_AND_ORGANIZATION ( #363, #211 ) ;
#236 = PERSON_AND_ORGANIZATION ( #363, #211 ) ;
#237 = PERSON_AND_ORGANIZATION ( #363, #211 ) ;
#238 = COORDINATED_UNIVERSAL_TIME_OFFSET ( 5, 0, .BEHIND. ) ;
#239 = LOCAL_TIME ( 14, 21, 47.00000000000000000, #238 ) ;
#240 = CALENDAR_DATE ( 2014, 22, 8 ) ;
#241 = DATE_AND_TIME ( #240, #239 ) ;
#242 = PERSON_AND_ORGANIZATION ( #363, #211 ) ;
#243 = APPROVAL_PERSON_ORGANIZATION ( #242, #352, #17 ) ;
#244 = COORDINATED_UNIVERSAL_TIME_OFFSET ( 5, 0, .BEHIND. ) ;
#245 = LOCAL_TIME ( 14, 21, 47.00000000000000000, #244 ) ;
#246 = CALENDAR_DATE ( 2014, 22, 8 ) ;
#247 = DATE_AND_TIME ( #246, #245 ) ;
#248 = ADVANCED_BREP_SHAPE_REPRESENTATION ( 'BH48AAW', ( #365, #337 ), #335 ) ;
#249 = UNCERTAINTY_MEASURE_WITH_UNIT (LENGTH_MEASURE( 1.000000000000000100E-005 ), #142, 'distance_accuracy_value', 'NONE');
#250 = CARTESIAN_POINT ( 'NONE',  ( 2.279999999999999800, 0.3799999999999998900, 1.170000000000000200 ) ) ;
#251 = DIRECTION ( 'NONE',  ( -1.000000000000000000, 0.0000000000000000000, 0.0000000000000000000 ) ) ;
#252 = CARTESIAN_POINT ( 'NONE',  ( 2.279999999999999800, -0.5799999999999999600, 1.170000000000000200 ) ) ;
#253 = DIRECTION ( 'NONE',  ( 0.0000000000000000000, 0.0000000000000000000, -1.000000000000000000 ) ) ;
#254 = CARTESIAN_POINT ( 'NONE',  ( 2.279999999999999800, 0.3799999999999998900, -1.169999999999999700 ) ) ;
#255 = DIRECTION ( 'NONE',  ( 1.000000000000000000, -0.0000000000000000000, -0.0000000000000000000 ) ) ;
#256 = CARTESIAN_POINT ( 'NONE',  ( 2.279999999999999800, -0.5799999999999999600, 1.170000000000000200 ) ) ;
#257 = DIRECTION ( 'NONE',  ( -0.0000000000000000000, -1.000000000000000000, -0.0000000000000000000 ) ) ;
#258 = CARTESIAN_POINT ( 'NONE',  ( 2.279999999999999800, -0.5799999999999999600, -1.169999999999999700 ) ) ;
#259 = DIRECTION ( 'NONE',  ( 0.0000000000000000000, 1.000000000000000000, 0.0000000000000000000 ) ) ;
#260 = CARTESIAN_POINT ( 'NONE',  ( 0.0000000000000000000, 0.5799999999999999600, 1.170000000000000200 ) ) ;
#261 = DIRECTION ( 'NONE',  ( -0.0000000000000000000, -0.0000000000000000000, 1.000000000000000000 ) ) ;
#262 = PLANE ( 'NONE',  #327 ) ;
#263 = DIRECTION ( 'NONE',  ( 0.0000000000000000000, -1.000000000000000000, 0.0000000000000000000 ) ) ;
#264 = CARTESIAN_POINT ( 'NONE',  ( 0.0000000000000000000, 0.0000000000000000000, 0.0000000000000000000 ) ) ;
#265 = DIRECTION ( 'NONE',  ( -1.000000000000000000, 0.0000000000000000000, 0.0000000000000000000 ) ) ;
#266 = DIRECTION ( 'NONE',  ( 0.0000000000000000000, 0.0000000000000000000, 1.000000000000000000 ) ) ;
#267 = DIRECTION ( 'NONE',  ( -1.000000000000000000, 0.0000000000000000000, 0.0000000000000000000 ) ) ;
#268 = CARTESIAN_POINT ( 'NONE',  ( 2.279999999999999800, -0.3799999999999998900, 0.9700000000000002000 ) ) ;
#269 = DIRECTION ( 'NONE',  ( 0.0000000000000000000, 0.0000000000000000000, 1.000000000000000000 ) ) ;
#270 = ORIENTED_EDGE ( 'NONE', *, *, #375, .F. ) ;
#271 = CIRCLE ( 'NONE', #364, 0.2000000000000000400 ) ;
#272 = VECTOR ( 'NONE', #203, 39.37007874015748100 ) ;
#273 = LINE ( 'NONE', #204, #272 ) ;
#274 = LINE ( 'NONE', #201, #278 ) ;
#275 = LINE ( 'NONE', #318, #276 ) ;
#276 = VECTOR ( 'NONE', #202, 39.37007874015748100 ) ;
#277 = CIRCLE ( 'NONE', #321, 0.2000000000000000400 ) ;
#278 = VECTOR ( 'NONE', #205, 39.37007874015748100 ) ;
#279 = CIRCLE ( 'NONE', #319, 0.2000000000000000400 ) ;
#280 = CIRCLE ( 'NONE', #320, 0.2000000000000000400 ) ;
#281 = FACE_OUTER_BOUND ( 'NONE', #155, .T. ) ;
#282 = CIRCLE ( 'NONE', #322, 0.2000000000000000400 ) ;
#283 = CIRCLE ( 'NONE', #323, 0.2000000000000000400 ) ;
#284 = CIRCLE ( 'NONE', #324, 0.2000000000000000400 ) ;
#285 = CIRCLE ( 'NONE', #325, 0.2000000000000000400 ) ;
#286 = FACE_OUTER_BOUND ( 'NONE', #153, .T. ) ;
#287 = ADVANCED_FACE ( 'NONE', ( #121 ), #176, .F. ) ;
#288 = VERTEX_POINT ( 'NONE', #170 ) ;
#289 = VERTEX_POINT ( 'NONE', #182 ) ;
#290 = ORIENTED_EDGE ( 'NONE', *, *, #198, .T. ) ;
#291 = ORIENTED_EDGE ( 'NONE', *, *, #195, .T. ) ;
#292 = ORIENTED_EDGE ( 'NONE', *, *, #376, .F. ) ;
#293 = VERTEX_POINT ( 'NONE', #181 ) ;
#294 = ORIENTED_EDGE ( 'NONE', *, *, #196, .T. ) ;
#295 = CARTESIAN_POINT ( 'NONE',  ( 0.0000000000000000000, 0.3799999999999998900, 1.170000000000000200 ) ) ;
#296 = CARTESIAN_POINT ( 'NONE',  ( 2.279999999999999800, 0.3799999999999998900, -0.9699999999999996400 ) ) ;
#297 = CARTESIAN_POINT ( 'NONE',  ( 0.0000000000000000000, -0.5799999999999999600, 0.9700000000000002000 ) ) ;
#298 = CARTESIAN_POINT ( 'NONE',  ( 2.279999999999999800, 0.5799999999999999600, 0.9700000000000002000 ) ) ;
#299 = CARTESIAN_POINT ( 'NONE',  ( 0.0000000000000000000, -0.3799999999999998900, -1.169999999999999700 ) ) ;
#300 = PLANE ( 'NONE',  #326 ) ;
#301 = CARTESIAN_POINT ( 'NONE',  ( 2.279999999999999800, 0.0000000000000000000, 0.0000000000000000000 ) ) ;
#302 = DIRECTION ( 'NONE',  ( -1.000000000000000000, 0.0000000000000000000, 0.0000000000000000000 ) ) ;
#303 = DIRECTION ( 'NONE',  ( 0.0000000000000000000, 0.0000000000000000000, 1.000000000000000000 ) ) ;
#304 = CARTESIAN_POINT ( 'NONE',  ( 2.279999999999999800, 0.3799999999999998900, -1.169999999999999700 ) ) ;
#305 = CARTESIAN_POINT ( 'NONE',  ( 0.0000000000000000000, 0.5799999999999999600, 0.9700000000000002000 ) ) ;
#306 = CARTESIAN_POINT ( 'NONE',  ( 0.0000000000000000000, -0.3799999999999998900, -0.9699999999999996400 ) ) ;
#307 = DIRECTION ( 'NONE',  ( -1.000000000000000000, 0.0000000000000000000, 0.0000000000000000000 ) ) ;
#308 = DIRECTION ( 'NONE',  ( 0.0000000000000000000, 0.0000000000000000000, 1.000000000000000000 ) ) ;
#309 = CARTESIAN_POINT ( 'NONE',  ( 2.279999999999999800, -0.5799999999999999600, -0.9699999999999996400 ) ) ;
#310 = CARTESIAN_POINT ( 'NONE',  ( 0.0000000000000000000, 0.3799999999999998900, 0.9700000000000002000 ) ) ;
#311 = DIRECTION ( 'NONE',  ( -1.000000000000000000, 0.0000000000000000000, 0.0000000000000000000 ) ) ;
#312 = CARTESIAN_POINT ( 'NONE',  ( 2.279999999999999800, 0.3799999999999998900, 0.9700000000000002000 ) ) ;
#313 = DIRECTION ( 'NONE',  ( 1.000000000000000000, -0.0000000000000000000, -0.0000000000000000000 ) ) ;
#314 = DIRECTION ( 'NONE',  ( 0.0000000000000000000, 0.0000000000000000000, 1.000000000000000000 ) ) ;
#315 = DIRECTION ( 'NONE',  ( 0.0000000000000000000, 0.0000000000000000000, 1.000000000000000000 ) ) ;
#316 = CARTESIAN_POINT ( 'NONE',  ( 0.0000000000000000000, 0.5799999999999999600, -0.9699999999999996400 ) ) ;
#317 = CARTESIAN_POINT ( 'NONE',  ( 0.0000000000000000000, -0.3799999999999998900, 0.9700000000000002000 ) ) ;
#318 = CARTESIAN_POINT ( 'NONE',  ( 2.279999999999999800, 0.5799999999999999600, 1.170000000000000200 ) ) ;
#319 = AXIS2_PLACEMENT_3D ( 'NONE', #362, #56, #206 ) ;
#320 = AXIS2_PLACEMENT_3D ( 'NONE', #366, #367, #368 ) ;
#321 = AXIS2_PLACEMENT_3D ( 'NONE', #370, #371, #78 ) ;
#322 = AXIS2_PLACEMENT_3D ( 'NONE', #312, #313, #314 ) ;
#323 = AXIS2_PLACEMENT_3D ( 'NONE', #317, #369, #358 ) ;
#324 = AXIS2_PLACEMENT_3D ( 'NONE', #306, #307, #308 ) ;
#325 = AXIS2_PLACEMENT_3D ( 'NONE', #310, #311, #315 ) ;
#326 = AXIS2_PLACEMENT_3D ( 'NONE', #301, #302, #303 ) ;
#327 = AXIS2_PLACEMENT_3D ( 'NONE', #264, #265, #266 ) ;
#328 = AXIS2_PLACEMENT_3D ( 'NONE', #268, #267, #269 ) ;
#329 = AXIS2_PLACEMENT_3D ( 'NONE', #80, #81, #82 ) ;
#330 = AXIS2_PLACEMENT_3D ( 'NONE', #85, #83, #79 ) ;
#331 = AXIS2_PLACEMENT_3D ( 'NONE', #296, #86, #84 ) ;
#332 = AXIS2_PLACEMENT_3D ( 'NONE', #22, #23, #24 ) ;
#333 = AXIS2_PLACEMENT_3D ( 'NONE', #20, #263, #37 ) ;
#334 = AXIS2_PLACEMENT_3D ( 'NONE', #38, #39, #40 ) ;
#335 =( GEOMETRIC_REPRESENTATION_CONTEXT ( 3 ) GLOBAL_UNCERTAINTY_ASSIGNED_CONTEXT ( ( #249 ) ) GLOBAL_UNIT_ASSIGNED_CONTEXT ( ( #142, #143, #144 ) ) REPRESENTATION_CONTEXT ( 'NONE', 'WORKASPACE' ) );
#336 = AXIS2_PLACEMENT_3D ( 'NONE', #177, #179, #180 ) ;
#337 = AXIS2_PLACEMENT_3D ( 'NONE', #140, #147, #148 ) ;
#338 = CC_DESIGN_PERSON_AND_ORGANIZATION_ASSIGNMENT ( #215, #150, ( #50 ) ) ;
#339 = PRODUCT_DEFINITION ( 'UNKNOWN', '', #344, #45 ) ;
#340 = APPROVAL ( #5, 'UNSPECIFIED' ) ;
#341 = CC_DESIGN_APPROVAL ( #340, ( #339 ) ) ;
#342 = CC_DESIGN_PERSON_AND_ORGANIZATION_ASSIGNMENT ( #223, #7, ( #339 ) ) ;
#343 = CC_DESIGN_DATE_AND_TIME_ASSIGNMENT ( #227, #8, ( #339 ) ) ;
#344 = PRODUCT_DEFINITION_FORMATION_WITH_SPECIFIED_SOURCE ( 'ANY', '', #50, .NOT_KNOWN. ) ;
#345 = APPROVAL ( #9, 'UNSPECIFIED' ) ;
#346 = CC_DESIGN_APPROVAL ( #345, ( #344 ) ) ;
#347 = CC_DESIGN_PERSON_AND_ORGANIZATION_ASSIGNMENT ( #235, #11, ( #344 ) ) ;
#348 = CC_DESIGN_PERSON_AND_ORGANIZATION_ASSIGNMENT ( #236, #12, ( #344 ) ) ;
#349 = SECURITY_CLASSIFICATION ( '', '', #13 ) ;
#350 = CC_DESIGN_PERSON_AND_ORGANIZATION_ASSIGNMENT ( #237, #14, ( #349 ) ) ;
#351 = CC_DESIGN_DATE_AND_TIME_ASSIGNMENT ( #241, #15, ( #349 ) ) ;
#352 = APPROVAL ( #16, 'UNSPECIFIED' ) ;
#353 = CC_DESIGN_APPROVAL ( #352, ( #349 ) ) ;
#354 = CC_DESIGN_SECURITY_CLASSIFICATION ( #349, ( #344 ) ) ;
#355 = PRODUCT_RELATED_PRODUCT_CATEGORY ( 'detail', '', ( #50 ) ) ;
#356 = VERTEX_POINT ( 'NONE', #183 ) ;
#357 = VERTEX_POINT ( 'NONE', #250 ) ;
#358 = DIRECTION ( 'NONE',  ( 0.0000000000000000000, 0.0000000000000000000, 1.000000000000000000 ) ) ;
#359 = CARTESIAN_POINT ( 'NONE',  ( 2.279999999999999800, -0.3799999999999998900, 0.9700000000000002000 ) ) ;
#360 = DIRECTION ( 'NONE',  ( 1.000000000000000000, -0.0000000000000000000, -0.0000000000000000000 ) ) ;
#361 = DIRECTION ( 'NONE',  ( 0.0000000000000000000, 0.0000000000000000000, 1.000000000000000000 ) ) ;
#362 = CARTESIAN_POINT ( 'NONE',  ( 2.279999999999999800, -0.3799999999999998900, -0.9699999999999996400 ) ) ;
#363 = PERSON ( 'UNSPECIFIED', 'UNSPECIFIED', 'UNSPECIFIED', ('UNSPECIFIED'), ('UNSPECIFIED'), ('UNSPECIFIED') ) ;
#364 = AXIS2_PLACEMENT_3D ( 'NONE', #359, #360, #361 ) ;
#365 = MANIFOLD_SOLID_BREP ( 'Fillet1', #55 ) ;
#366 = CARTESIAN_POINT ( 'NONE',  ( 0.0000000000000000000, 0.3799999999999998900, -0.9699999999999996400 ) ) ;
#367 = DIRECTION ( 'NONE',  ( -1.000000000000000000, 0.0000000000000000000, 0.0000000000000000000 ) ) ;
#368 = DIRECTION ( 'NONE',  ( 0.0000000000000000000, 0.0000000000000000000, 1.000000000000000000 ) ) ;
#369 = DIRECTION ( 'NONE',  ( -1.000000000000000000, 0.0000000000000000000, 0.0000000000000000000 ) ) ;
#370 = CARTESIAN_POINT ( 'NONE',  ( 2.279999999999999800, 0.3799999999999998900, -0.9699999999999996400 ) ) ;
#371 = DIRECTION ( 'NONE',  ( 1.000000000000000000, -0.0000000000000000000, -0.0000000000000000000 ) ) ;
#372 = EDGE_CURVE ( 'NONE', #357, #48, #129, .T. ) ;
#373 = EDGE_CURVE ( 'NONE', #293, #47, #128, .T. ) ;
#374 = EDGE_CURVE ( 'NONE', #3, #152, #130, .T. ) ;
#375 = EDGE_CURVE ( 'NONE', #357, #356, #131, .T. ) ;
#376 = EDGE_CURVE ( 'NONE', #1, #152, #133, .T. ) ;
#377 = EDGE_CURVE ( 'NONE', #36, #49, #135, .T. ) ;
#378 = EDGE_CURVE ( 'NONE', #293, #75, #209, .T. ) ;
#379 = EDGE_CURVE ( 'NONE', #289, #356, #208, .T. ) ;
#380 = APPROVAL_DATE_TIME ( #247, #352 ) ;
ENDSEC;
END-ISO-10303-21;
