ISO-10303-21;
HEADER;
FILE_DESCRIPTION (( 'STEP AP214' ),
    '1' );
FILE_NAME ('ZA2080.STEP',
    '2020-02-12T07:37:21',
    ( '' ),
    ( '' ),
    'SwSTEP 2.0',
    'SolidWorks 2017',
    '' );
FILE_SCHEMA (( 'AUTOMOTIVE_DESIGN' ));
ENDSEC;

DATA;
#1 = ORIENTED_EDGE ( 'NONE', *, *, #167, .F. ) ;
#2 = DIRECTION ( 'NONE',  ( 0.0000000000000000000, 0.0000000000000000000, 1.000000000000000000 ) ) ;
#3 = PRODUCT_DEFINITION ( 'UNKNOWN', '', #206, #79 ) ;
#4 = VERTEX_POINT ( 'NONE', #11 ) ;
#5 = LINE ( 'NONE', #65, #246 ) ;
#6 = PRODUCT_DEFINITION_SHAPE ( 'NONE', 'NONE',  #3 ) ;
#7 = DIRECTION ( 'NONE',  ( 0.0000000000000000000, 0.0000000000000000000, 1.000000000000000000 ) ) ;
#8 = CARTESIAN_POINT ( 'NONE',  ( 2.499999999999998700, 0.0000000000000000000, 0.0000000000000000000 ) ) ;
#9 = EDGE_LOOP ( 'NONE', ( #127, #50, #29, #210 ) ) ;
#10 = AXIS2_PLACEMENT_3D ( 'NONE', #201, #40, #2 ) ;
#11 = CARTESIAN_POINT ( 'NONE',  ( 11.10000000000000100, 0.0000000000000000000, 12.25000000000000000 ) ) ;
#12 = DIRECTION ( 'NONE',  ( 0.0000000000000000000, 0.0000000000000000000, 1.000000000000000000 ) ) ;
#13 = SHAPE_DEFINITION_REPRESENTATION ( #6, #15 ) ;
#14 = CARTESIAN_POINT ( 'NONE',  ( 0.0000000000000000000, 1.389974117032245700E-015, -11.34999999999999800 ) ) ;
#15 = ADVANCED_BREP_SHAPE_REPRESENTATION ( 'ZA2080', ( #120, #164 ), #139 ) ;
#16 = CARTESIAN_POINT ( 'NONE',  ( 0.0000000000000000000, 0.0000000000000000000, 0.0000000000000000000 ) ) ;
#17 =( NAMED_UNIT ( * ) PLANE_ANGLE_UNIT ( ) SI_UNIT ( $, .RADIAN. ) );
#18 = FACE_BOUND ( 'NONE', #143, .T. ) ;
#19 = VERTEX_POINT ( 'NONE', #26 ) ;
#20 = EDGE_LOOP ( 'NONE', ( #158, #220 ) ) ;
#21 = EDGE_LOOP ( 'NONE', ( #63, #261 ) ) ;
#22 = FACE_OUTER_BOUND ( 'NONE', #217, .T. ) ;
#23 = FILL_AREA_STYLE ('',( #262 ) ) ;
#24 = AXIS2_PLACEMENT_3D ( 'NONE', #243, #223, #34 ) ;
#25 = CARTESIAN_POINT ( 'NONE',  ( 2.499999999999998700, 1.500192328955507700E-015, -12.25000000000000000 ) ) ;
#26 = CARTESIAN_POINT ( 'NONE',  ( 11.10000000000000100, 0.0000000000000000000, 11.35000000000000000 ) ) ;
#27 = ORIENTED_EDGE ( 'NONE', *, *, #236, .T. ) ;
#28 = APPLICATION_CONTEXT ( 'automotive_design' ) ;
#29 = ORIENTED_EDGE ( 'NONE', *, *, #61, .F. ) ;
#30 = CARTESIAN_POINT ( 'NONE',  ( 11.10000000000000100, 0.0000000000000000000, 0.0000000000000000000 ) ) ;
#31 = ORIENTED_EDGE ( 'NONE', *, *, #200, .F. ) ;
#32 = CARTESIAN_POINT ( 'NONE',  ( 11.09999999999999800, 12.25000000000000000, 0.0000000000000000000 ) ) ;
#33 = CARTESIAN_POINT ( 'NONE',  ( 2.499999999999998700, 0.0000000000000000000, 0.0000000000000000000 ) ) ;
#34 = DIRECTION ( 'NONE',  ( 0.0000000000000000000, 0.0000000000000000000, 1.000000000000000000 ) ) ;
#35 = ADVANCED_FACE ( 'NONE', ( #47 ), #95, .T. ) ;
#36 = EDGE_LOOP ( 'NONE', ( #190, #101, #123, #1 ) ) ;
#37 = FILL_AREA_STYLE_COLOUR ( '', #270 ) ;
#38 = ORIENTED_EDGE ( 'NONE', *, *, #57, .T. ) ;
#39 =( LENGTH_UNIT ( ) NAMED_UNIT ( * ) SI_UNIT ( .MILLI., .METRE. ) );
#40 = DIRECTION ( 'NONE',  ( -1.000000000000000000, -0.0000000000000000000, -0.0000000000000000000 ) ) ;
#41 = ORIENTED_EDGE ( 'NONE', *, *, #57, .F. ) ;
#42 = DIRECTION ( 'NONE',  ( 0.0000000000000000000, 0.0000000000000000000, 1.000000000000000000 ) ) ;
#43 = ORIENTED_EDGE ( 'NONE', *, *, #106, .F. ) ;
#44 = FACE_OUTER_BOUND ( 'NONE', #153, .T. ) ;
#45 = AXIS2_PLACEMENT_3D ( 'NONE', #192, #98, #69 ) ;
#46 = CYLINDRICAL_SURFACE ( 'NONE', #24, 11.35000000000000000 ) ;
#47 = FACE_OUTER_BOUND ( 'NONE', #279, .T. ) ;
#48 = DIRECTION ( 'NONE',  ( 0.0000000000000000000, 0.0000000000000000000, 1.000000000000000000 ) ) ;
#49 = LINE ( 'NONE', #255, #284 ) ;
#50 = ORIENTED_EDGE ( 'NONE', *, *, #227, .T. ) ;
#51 = DIRECTION ( 'NONE',  ( 1.000000000000000000, 0.0000000000000000000, 0.0000000000000000000 ) ) ;
#52 = CARTESIAN_POINT ( 'NONE',  ( 2.499999999999998700, 0.0000000000000000000, 0.0000000000000000000 ) ) ;
#53 = CIRCLE ( 'NONE', #10, 12.25000000000000000 ) ;
#54 = EDGE_LOOP ( 'NONE', ( #176, #147 ) ) ;
#55 = ADVANCED_FACE ( 'NONE', ( #211, #104 ), #75, .F. ) ;
#56 = DIRECTION ( 'NONE',  ( -0.0000000000000000000, 0.0000000000000000000, 1.000000000000000000 ) ) ;
#57 = EDGE_CURVE ( 'NONE', #247, #274, #292, .T. ) ;
#58 = COLOUR_RGB ( '',0.7921568627450980000, 0.8196078431372548800, 0.9333333333333333500 ) ;
#59 = DIRECTION ( 'NONE',  ( -1.000000000000000000, -0.0000000000000000000, -0.0000000000000000000 ) ) ;
#60 = DIRECTION ( 'NONE',  ( -1.000000000000000000, -0.0000000000000000000, -0.0000000000000000000 ) ) ;
#61 = EDGE_CURVE ( 'NONE', #76, #258, #119, .T. ) ;
#62 = SURFACE_STYLE_FILL_AREA ( #23 ) ;
#63 = ORIENTED_EDGE ( 'NONE', *, *, #61, .T. ) ;
#64 = CARTESIAN_POINT ( 'NONE',  ( 11.10000000000000100, 0.0000000000000000000, 0.0000000000000000000 ) ) ;
#65 = CARTESIAN_POINT ( 'NONE',  ( 2.499999999999998700, 0.0000000000000000000, -15.65000000000000000 ) ) ;
#66 = PRESENTATION_STYLE_ASSIGNMENT (( #268 ) ) ;
#67 = AXIS2_PLACEMENT_3D ( 'NONE', #126, #233, #7 ) ;
#68 = ADVANCED_FACE ( 'NONE', ( #204 ), #222, .T. ) ;
#69 = DIRECTION ( 'NONE',  ( 0.0000000000000000000, 0.0000000000000000000, 1.000000000000000000 ) ) ;
#70 = AXIS2_PLACEMENT_3D ( 'NONE', #294, #105, #77 ) ;
#71 = DIRECTION ( 'NONE',  ( -1.000000000000000000, -0.0000000000000000000, -0.0000000000000000000 ) ) ;
#72 = CYLINDRICAL_SURFACE ( 'NONE', #67, 11.35000000000000000 ) ;
#73 = LINE ( 'NONE', #226, #214 ) ;
#74 = DIRECTION ( 'NONE',  ( -1.000000000000000000, -0.0000000000000000000, -0.0000000000000000000 ) ) ;
#75 = PLANE ( 'NONE',  #187 ) ;
#76 = VERTEX_POINT ( 'NONE', #269 ) ;
#77 = DIRECTION ( 'NONE',  ( 0.0000000000000000000, 0.0000000000000000000, 1.000000000000000000 ) ) ;
#78 = DIRECTION ( 'NONE',  ( 0.0000000000000000000, 0.0000000000000000000, 1.000000000000000000 ) ) ;
#79 = PRODUCT_DEFINITION_CONTEXT ( 'detailed design', #28, 'design' ) ;
#80 = CARTESIAN_POINT ( 'NONE',  ( 2.499999999999998700, 0.0000000000000000000, 0.0000000000000000000 ) ) ;
#81 = DIRECTION ( 'NONE',  ( 0.9968152785361248400, 9.765973121603655400E-018, 0.07974522228289092400 ) ) ;
#82 = ORIENTED_EDGE ( 'NONE', *, *, #213, .T. ) ;
#83 = EDGE_LOOP ( 'NONE', ( #212, #180, #276, #238 ) ) ;
#84 = DIRECTION ( 'NONE',  ( 0.0000000000000000000, 0.0000000000000000000, 1.000000000000000000 ) ) ;
#85 = DIRECTION ( 'NONE',  ( 0.0000000000000000000, 0.0000000000000000000, 1.000000000000000000 ) ) ;
#86 = DIRECTION ( 'NONE',  ( 0.9968152785361248400, 0.0000000000000000000, -0.07974522228289092400 ) ) ;
#87 = FACE_BOUND ( 'NONE', #21, .T. ) ;
#88 = AXIS2_PLACEMENT_3D ( 'NONE', #244, #111, #129 ) ;
#89 = VERTEX_POINT ( 'NONE', #107 ) ;
#90 = AXIS2_PLACEMENT_3D ( 'NONE', #30, #71, #172 ) ;
#91 = CYLINDRICAL_SURFACE ( 'NONE', #110, 12.25000000000000000 ) ;
#92 = VECTOR ( 'NONE', #81, 1000.000000000000100 ) ;
#93 = EDGE_CURVE ( 'NONE', #285, #186, #73, .T. ) ;
#94 = EDGE_CURVE ( 'NONE', #274, #247, #141, .T. ) ;
#95 = CONICAL_SURFACE ( 'NONE', #161, 15.65000000000000000, 0.07982998571223826100 ) ;
#96 = ADVANCED_FACE ( 'NONE', ( #195 ), #46, .F. ) ;
#97 =( NAMED_UNIT ( * ) PLANE_ANGLE_UNIT ( ) SI_UNIT ( $, .RADIAN. ) );
#98 = DIRECTION ( 'NONE',  ( -1.000000000000000000, -0.0000000000000000000, -0.0000000000000000000 ) ) ;
#99 = ORIENTED_EDGE ( 'NONE', *, *, #93, .T. ) ;
#100 = CARTESIAN_POINT ( 'NONE',  ( 0.0000000000000000000, 0.0000000000000000000, 0.0000000000000000000 ) ) ;
#101 = ORIENTED_EDGE ( 'NONE', *, *, #290, .T. ) ;
#102 = CARTESIAN_POINT ( 'NONE',  ( -20.30777628021741400, 0.0000000000000000000, 0.0000000000000000000 ) ) ;
#103 = DIRECTION ( 'NONE',  ( -1.000000000000000000, -0.0000000000000000000, -0.0000000000000000000 ) ) ;
#104 = FACE_OUTER_BOUND ( 'NONE', #54, .T. ) ;
#105 = DIRECTION ( 'NONE',  ( -1.000000000000000000, -0.0000000000000000000, -0.0000000000000000000 ) ) ;
#106 = EDGE_CURVE ( 'NONE', #252, #247, #173, .T. ) ;
#107 = CARTESIAN_POINT ( 'NONE',  ( 0.0000000000000000000, 0.0000000000000000000, -15.44999999999999900 ) ) ;
#108 = CIRCLE ( 'NONE', #234, 11.35000000000000000 ) ;
#109 = FACE_OUTER_BOUND ( 'NONE', #136, .T. ) ;
#110 = AXIS2_PLACEMENT_3D ( 'NONE', #184, #205, #272 ) ;
#111 = DIRECTION ( 'NONE',  ( -1.000000000000000000, 0.0000000000000000000, -0.0000000000000000000 ) ) ;
#112 = EDGE_CURVE ( 'NONE', #252, #89, #225, .T. ) ;
#113 = ADVANCED_FACE ( 'NONE', ( #109, #87 ), #181, .F. ) ;
#114 = ORIENTED_EDGE ( 'NONE', *, *, #290, .F. ) ;
#115 = CARTESIAN_POINT ( 'NONE',  ( 0.0000000000000000000, 0.0000000000000000000, 11.34999999999999800 ) ) ;
#116 = EDGE_CURVE ( 'NONE', #198, #186, #183, .T. ) ;
#117 = DIRECTION ( 'NONE',  ( -1.000000000000000000, -0.0000000000000000000, -0.0000000000000000000 ) ) ;
#118 = VERTEX_POINT ( 'NONE', #156 ) ;
#119 = CIRCLE ( 'NONE', #209, 12.25000000000000000 ) ;
#120 = MANIFOLD_SOLID_BREP ( 'Revolve1', #240 ) ;
#121 = CARTESIAN_POINT ( 'NONE',  ( 2.499999999999998700, 0.0000000000000000000, -15.65000000000000000 ) ) ;
#122 = STYLED_ITEM ( 'NONE', ( #66 ), #120 ) ;
#123 = ORIENTED_EDGE ( 'NONE', *, *, #242, .T. ) ;
#124 = SURFACE_SIDE_STYLE ('',( #62 ) ) ;
#125 = SURFACE_STYLE_USAGE ( .BOTH. , #124 ) ;
#126 = CARTESIAN_POINT ( 'NONE',  ( -20.30777628021741400, 0.0000000000000000000, 0.0000000000000000000 ) ) ;
#127 = ORIENTED_EDGE ( 'NONE', *, *, #194, .T. ) ;
#128 = DIRECTION ( 'NONE',  ( 0.0000000000000000000, 0.0000000000000000000, -1.000000000000000000 ) ) ;
#129 = DIRECTION ( 'NONE',  ( -0.0000000000000000000, 0.0000000000000000000, 1.000000000000000000 ) ) ;
#130 = AXIS2_PLACEMENT_3D ( 'NONE', #64, #163, #85 ) ;
#131 = DIRECTION ( 'NONE',  ( -1.000000000000000000, -0.0000000000000000000, -0.0000000000000000000 ) ) ;
#132 = VECTOR ( 'NONE', #135, 1000.000000000000000 ) ;
#133 = PRODUCT ( 'ZA2080', 'ZA2080', '', ( #174 ) ) ;
#134 = SURFACE_STYLE_FILL_AREA ( #202 ) ;
#135 = DIRECTION ( 'NONE',  ( -1.000000000000000000, -0.0000000000000000000, -0.0000000000000000000 ) ) ;
#136 = EDGE_LOOP ( 'NONE', ( #278, #41 ) ) ;
#137 = LINE ( 'NONE', #249, #132 ) ;
#138 = PRESENTATION_LAYER_ASSIGNMENT (  '', '', ( #122 ) ) ;
#139 =( GEOMETRIC_REPRESENTATION_CONTEXT ( 3 ) GLOBAL_UNCERTAINTY_ASSIGNED_CONTEXT ( ( #179 ) ) GLOBAL_UNIT_ASSIGNED_CONTEXT ( ( #257, #97, #149 ) ) REPRESENTATION_CONTEXT ( 'NONE', 'WORKASPACE' ) );
#140 = VECTOR ( 'NONE', #117, 1000.000000000000000 ) ;
#141 = CIRCLE ( 'NONE', #264, 15.65000000000000000 ) ;
#142 = EDGE_CURVE ( 'NONE', #285, #19, #108, .T. ) ;
#143 = EDGE_LOOP ( 'NONE', ( #27, #232 ) ) ;
#144 = APPLICATION_PROTOCOL_DEFINITION ( 'draft international standard', 'automotive_design', 1998, #216 ) ;
#145 =( GEOMETRIC_REPRESENTATION_CONTEXT ( 3 ) GLOBAL_UNCERTAINTY_ASSIGNED_CONTEXT ( ( #207 ) ) GLOBAL_UNIT_ASSIGNED_CONTEXT ( ( #256, #146, #193 ) ) REPRESENTATION_CONTEXT ( 'NONE', 'WORKASPACE' ) );
#146 =( NAMED_UNIT ( * ) PLANE_ANGLE_UNIT ( ) SI_UNIT ( $, .RADIAN. ) );
#147 = ORIENTED_EDGE ( 'NONE', *, *, #112, .T. ) ;
#148 = DIRECTION ( 'NONE',  ( 1.000000000000000000, 0.0000000000000000000, 0.0000000000000000000 ) ) ;
#149 =( NAMED_UNIT ( * ) SI_UNIT ( $, .STERADIAN. ) SOLID_ANGLE_UNIT ( ) );
#150 = ADVANCED_FACE ( 'NONE', ( #22, #18 ), #152, .F. ) ;
#151 = MECHANICAL_DESIGN_GEOMETRIC_PRESENTATION_REPRESENTATION (  '', ( #259 ), #145 ) ;
#152 = PLANE ( 'NONE',  #267 ) ;
#153 = EDGE_LOOP ( 'NONE', ( #157, #254, #38, #265 ) ) ;
#154 = MECHANICAL_DESIGN_GEOMETRIC_PRESENTATION_REPRESENTATION (  '', ( #122 ), #221 ) ;
#155 = DIRECTION ( 'NONE',  ( 0.0000000000000000000, 0.0000000000000000000, 1.000000000000000000 ) ) ;
#156 = CARTESIAN_POINT ( 'NONE',  ( 11.10000000000000100, 1.500192328955507700E-015, -12.25000000000000000 ) ) ;
#157 = ORIENTED_EDGE ( 'NONE', *, *, #112, .F. ) ;
#158 = ORIENTED_EDGE ( 'NONE', *, *, #116, .F. ) ;
#159 = SURFACE_SIDE_STYLE ('',( #134 ) ) ;
#160 = DIRECTION ( 'NONE',  ( -1.000000000000000000, -0.0000000000000000000, -0.0000000000000000000 ) ) ;
#161 = AXIS2_PLACEMENT_3D ( 'NONE', #52, #263, #218 ) ;
#162 = ORIENTED_EDGE ( 'NONE', *, *, #251, .T. ) ;
#163 = DIRECTION ( 'NONE',  ( -1.000000000000000000, -0.0000000000000000000, -0.0000000000000000000 ) ) ;
#164 = AXIS2_PLACEMENT_3D ( 'NONE', #235, #219, #51 ) ;
#165 = FACE_OUTER_BOUND ( 'NONE', #166, .T. ) ;
#166 = EDGE_LOOP ( 'NONE', ( #287, #99, #162, #31 ) ) ;
#167 = EDGE_CURVE ( 'NONE', #258, #76, #53, .T. ) ;
#168 = ORIENTED_EDGE ( 'NONE', *, *, #171, .F. ) ;
#169 = APPLICATION_PROTOCOL_DEFINITION ( 'draft international standard', 'automotive_design', 1998, #28 ) ;
#170 = DIRECTION ( 'NONE',  ( -1.000000000000000000, -0.0000000000000000000, -0.0000000000000000000 ) ) ;
#171 = EDGE_CURVE ( 'NONE', #89, #252, #237, .T. ) ;
#172 = DIRECTION ( 'NONE',  ( 0.0000000000000000000, 0.0000000000000000000, 1.000000000000000000 ) ) ;
#173 = LINE ( 'NONE', #289, #92 ) ;
#174 = PRODUCT_CONTEXT ( 'NONE', #216, 'mechanical' ) ;
#175 = CARTESIAN_POINT ( 'NONE',  ( 2.499999999999998700, 1.916572240665608000E-015, 15.65000000000000000 ) ) ;
#176 = ORIENTED_EDGE ( 'NONE', *, *, #171, .T. ) ;
#177 = CARTESIAN_POINT ( 'NONE',  ( 2.499999999999998700, 0.0000000000000000000, 0.0000000000000000000 ) ) ;
#178 = DIRECTION ( 'NONE',  ( -1.000000000000000000, -0.0000000000000000000, -0.0000000000000000000 ) ) ;
#179 = UNCERTAINTY_MEASURE_WITH_UNIT (LENGTH_MEASURE( 1.000000000000000100E-005 ), #257, 'distance_accuracy_value', 'NONE');
#180 = ORIENTED_EDGE ( 'NONE', *, *, #236, .F. ) ;
#181 = PLANE ( 'NONE',  #88 ) ;
#182 = PRESENTATION_STYLE_ASSIGNMENT (( #125 ) ) ;
#183 = CIRCLE ( 'NONE', #70, 11.34999999999999800 ) ;
#184 = CARTESIAN_POINT ( 'NONE',  ( -20.30777628021741400, 0.0000000000000000000, 0.0000000000000000000 ) ) ;
#185 = AXIS2_PLACEMENT_3D ( 'NONE', #8, #103, #84 ) ;
#186 = VERTEX_POINT ( 'NONE', #14 ) ;
#187 = AXIS2_PLACEMENT_3D ( 'NONE', #260, #148, #128 ) ;
#188 = ADVANCED_FACE ( 'NONE', ( #44 ), #229, .T. ) ;
#189 = CARTESIAN_POINT ( 'NONE',  ( 11.10000000000000100, 1.389974117032245900E-015, -11.35000000000000000 ) ) ;
#190 = ORIENTED_EDGE ( 'NONE', *, *, #227, .F. ) ;
#191 = CIRCLE ( 'NONE', #250, 11.34999999999999800 ) ;
#192 = CARTESIAN_POINT ( 'NONE',  ( 11.10000000000000100, 0.0000000000000000000, 0.0000000000000000000 ) ) ;
#193 =( NAMED_UNIT ( * ) SI_UNIT ( $, .STERADIAN. ) SOLID_ANGLE_UNIT ( ) );
#194 = EDGE_CURVE ( 'NONE', #4, #118, #224, .T. ) ;
#195 = FACE_OUTER_BOUND ( 'NONE', #83, .T. ) ;
#196 = ADVANCED_FACE ( 'NONE', ( #203 ), #91, .T. ) ;
#197 = DIRECTION ( 'NONE',  ( -1.000000000000000000, 0.0000000000000000000, -0.0000000000000000000 ) ) ;
#198 = VERTEX_POINT ( 'NONE', #115 ) ;
#199 = DIRECTION ( 'NONE',  ( -1.000000000000000000, -0.0000000000000000000, -0.0000000000000000000 ) ) ;
#200 = EDGE_CURVE ( 'NONE', #19, #198, #137, .T. ) ;
#201 = CARTESIAN_POINT ( 'NONE',  ( 2.499999999999998700, 0.0000000000000000000, 0.0000000000000000000 ) ) ;
#202 = FILL_AREA_STYLE ('',( #37 ) ) ;
#203 = FACE_OUTER_BOUND ( 'NONE', #9, .T. ) ;
#204 = FACE_OUTER_BOUND ( 'NONE', #36, .T. ) ;
#205 = DIRECTION ( 'NONE',  ( -1.000000000000000000, -0.0000000000000000000, -0.0000000000000000000 ) ) ;
#206 = PRODUCT_DEFINITION_FORMATION_WITH_SPECIFIED_SOURCE ( 'ANY', '', #133, .NOT_KNOWN. ) ;
#207 = UNCERTAINTY_MEASURE_WITH_UNIT (LENGTH_MEASURE( 1.000000000000000100E-005 ), #256, 'distance_accuracy_value', 'NONE');
#208 = CARTESIAN_POINT ( 'NONE',  ( 0.0000000000000000000, 0.0000000000000000000, 0.0000000000000000000 ) ) ;
#209 = AXIS2_PLACEMENT_3D ( 'NONE', #177, #178, #241 ) ;
#210 = ORIENTED_EDGE ( 'NONE', *, *, #242, .F. ) ;
#211 = FACE_BOUND ( 'NONE', #20, .T. ) ;
#212 = ORIENTED_EDGE ( 'NONE', *, *, #93, .F. ) ;
#213 = EDGE_CURVE ( 'NONE', #89, #274, #5, .T. ) ;
#214 = VECTOR ( 'NONE', #60, 1000.000000000000000 ) ;
#215 = AXIS2_PLACEMENT_3D ( 'NONE', #102, #74, #239 ) ;
#216 = APPLICATION_CONTEXT ( 'automotive_design' ) ;
#217 = EDGE_LOOP ( 'NONE', ( #228, #114 ) ) ;
#218 = DIRECTION ( 'NONE',  ( 0.0000000000000000000, 0.0000000000000000000, -1.000000000000000000 ) ) ;
#219 = DIRECTION ( 'NONE',  ( 0.0000000000000000000, 0.0000000000000000000, 1.000000000000000000 ) ) ;
#220 = ORIENTED_EDGE ( 'NONE', *, *, #251, .F. ) ;
#221 =( GEOMETRIC_REPRESENTATION_CONTEXT ( 3 ) GLOBAL_UNCERTAINTY_ASSIGNED_CONTEXT ( ( #293 ) ) GLOBAL_UNIT_ASSIGNED_CONTEXT ( ( #39, #17, #271 ) ) REPRESENTATION_CONTEXT ( 'NONE', 'WORKASPACE' ) );
#222 = CYLINDRICAL_SURFACE ( 'NONE', #215, 12.25000000000000000 ) ;
#223 = DIRECTION ( 'NONE',  ( -1.000000000000000000, -0.0000000000000000000, -0.0000000000000000000 ) ) ;
#224 = CIRCLE ( 'NONE', #130, 12.25000000000000000 ) ;
#225 = CIRCLE ( 'NONE', #280, 15.44999999999999900 ) ;
#226 = CARTESIAN_POINT ( 'NONE',  ( -20.30777628021741400, 1.389974117032245900E-015, -11.35000000000000000 ) ) ;
#227 = EDGE_CURVE ( 'NONE', #118, #258, #231, .T. ) ;
#228 = ORIENTED_EDGE ( 'NONE', *, *, #194, .F. ) ;
#229 = CONICAL_SURFACE ( 'NONE', #245, 15.65000000000000000, 0.07982998571223826100 ) ;
#230 = ORIENTED_EDGE ( 'NONE', *, *, #94, .T. ) ;
#231 = LINE ( 'NONE', #273, #140 ) ;
#232 = ORIENTED_EDGE ( 'NONE', *, *, #142, .T. ) ;
#233 = DIRECTION ( 'NONE',  ( -1.000000000000000000, -0.0000000000000000000, -0.0000000000000000000 ) ) ;
#234 = AXIS2_PLACEMENT_3D ( 'NONE', #288, #199, #12 ) ;
#235 = CARTESIAN_POINT ( 'NONE',  ( 0.0000000000000000000, 0.0000000000000000000, 0.0000000000000000000 ) ) ;
#236 = EDGE_CURVE ( 'NONE', #19, #285, #277, .T. ) ;
#237 = CIRCLE ( 'NONE', #275, 15.44999999999999900 ) ;
#238 = ORIENTED_EDGE ( 'NONE', *, *, #116, .T. ) ;
#239 = DIRECTION ( 'NONE',  ( 0.0000000000000000000, 0.0000000000000000000, 1.000000000000000000 ) ) ;
#240 = CLOSED_SHELL ( 'NONE', ( #196, #188, #281, #150, #96, #55, #35, #113, #68 ) ) ;
#241 = DIRECTION ( 'NONE',  ( 0.0000000000000000000, 0.0000000000000000000, 1.000000000000000000 ) ) ;
#242 = EDGE_CURVE ( 'NONE', #4, #76, #49, .T. ) ;
#243 = CARTESIAN_POINT ( 'NONE',  ( -20.30777628021741400, 0.0000000000000000000, 0.0000000000000000000 ) ) ;
#244 = CARTESIAN_POINT ( 'NONE',  ( 2.499999999999999600, 15.65000000000000000, 0.0000000000000000000 ) ) ;
#245 = AXIS2_PLACEMENT_3D ( 'NONE', #33, #266, #248 ) ;
#246 = VECTOR ( 'NONE', #86, 1000.000000000000100 ) ;
#247 = VERTEX_POINT ( 'NONE', #175 ) ;
#248 = DIRECTION ( 'NONE',  ( 0.0000000000000000000, 0.0000000000000000000, -1.000000000000000000 ) ) ;
#249 = CARTESIAN_POINT ( 'NONE',  ( -20.30777628021741400, 0.0000000000000000000, 11.35000000000000000 ) ) ;
#250 = AXIS2_PLACEMENT_3D ( 'NONE', #100, #170, #48 ) ;
#251 = EDGE_CURVE ( 'NONE', #186, #198, #191, .T. ) ;
#252 = VERTEX_POINT ( 'NONE', #282 ) ;
#253 = PRESENTATION_LAYER_ASSIGNMENT (  '', '', ( #259 ) ) ;
#254 = ORIENTED_EDGE ( 'NONE', *, *, #106, .T. ) ;
#255 = CARTESIAN_POINT ( 'NONE',  ( -20.30777628021741400, 0.0000000000000000000, 12.25000000000000000 ) ) ;
#256 =( LENGTH_UNIT ( ) NAMED_UNIT ( * ) SI_UNIT ( .MILLI., .METRE. ) );
#257 =( LENGTH_UNIT ( ) NAMED_UNIT ( * ) SI_UNIT ( .MILLI., .METRE. ) );
#258 = VERTEX_POINT ( 'NONE', #25 ) ;
#259 = STYLED_ITEM ( 'NONE', ( #182 ), #15 ) ;
#260 = CARTESIAN_POINT ( 'NONE',  ( 4.093477949124590500E-017, 11.34999999999999800, 0.0000000000000000000 ) ) ;
#261 = ORIENTED_EDGE ( 'NONE', *, *, #167, .T. ) ;
#262 = FILL_AREA_STYLE_COLOUR ( '', #58 ) ;
#263 = DIRECTION ( 'NONE',  ( 1.000000000000000000, 0.0000000000000000000, 0.0000000000000000000 ) ) ;
#264 = AXIS2_PLACEMENT_3D ( 'NONE', #80, #131, #78 ) ;
#265 = ORIENTED_EDGE ( 'NONE', *, *, #213, .F. ) ;
#266 = DIRECTION ( 'NONE',  ( 1.000000000000000000, 0.0000000000000000000, 0.0000000000000000000 ) ) ;
#267 = AXIS2_PLACEMENT_3D ( 'NONE', #32, #197, #56 ) ;
#268 = SURFACE_STYLE_USAGE ( .BOTH. , #159 ) ;
#269 = CARTESIAN_POINT ( 'NONE',  ( 2.499999999999998700, 0.0000000000000000000, 12.25000000000000000 ) ) ;
#270 = COLOUR_RGB ( '',1.000000000000000000, 1.000000000000000000, 0.8274509803921568100 ) ;
#271 =( NAMED_UNIT ( * ) SI_UNIT ( $, .STERADIAN. ) SOLID_ANGLE_UNIT ( ) );
#272 = DIRECTION ( 'NONE',  ( 0.0000000000000000000, 0.0000000000000000000, 1.000000000000000000 ) ) ;
#273 = CARTESIAN_POINT ( 'NONE',  ( -20.30777628021741400, 1.500192328955507700E-015, -12.25000000000000000 ) ) ;
#274 = VERTEX_POINT ( 'NONE', #121 ) ;
#275 = AXIS2_PLACEMENT_3D ( 'NONE', #208, #160, #42 ) ;
#276 = ORIENTED_EDGE ( 'NONE', *, *, #200, .T. ) ;
#277 = CIRCLE ( 'NONE', #45, 11.35000000000000000 ) ;
#278 = ORIENTED_EDGE ( 'NONE', *, *, #94, .F. ) ;
#279 = EDGE_LOOP ( 'NONE', ( #43, #168, #82, #230 ) ) ;
#280 = AXIS2_PLACEMENT_3D ( 'NONE', #16, #59, #155 ) ;
#281 = ADVANCED_FACE ( 'NONE', ( #165 ), #72, .F. ) ;
#282 = CARTESIAN_POINT ( 'NONE',  ( 0.0000000000000000000, 1.904325772674134200E-015, 15.44999999999999900 ) ) ;
#283 = PRODUCT_RELATED_PRODUCT_CATEGORY ( 'part', '', ( #133 ) ) ;
#284 = VECTOR ( 'NONE', #286, 1000.000000000000000 ) ;
#285 = VERTEX_POINT ( 'NONE', #189 ) ;
#286 = DIRECTION ( 'NONE',  ( -1.000000000000000000, -0.0000000000000000000, -0.0000000000000000000 ) ) ;
#287 = ORIENTED_EDGE ( 'NONE', *, *, #142, .F. ) ;
#288 = CARTESIAN_POINT ( 'NONE',  ( 11.10000000000000100, 0.0000000000000000000, 0.0000000000000000000 ) ) ;
#289 = CARTESIAN_POINT ( 'NONE',  ( 2.499999999999998700, 1.916572240665608000E-015, 15.65000000000000000 ) ) ;
#290 = EDGE_CURVE ( 'NONE', #118, #4, #291, .T. ) ;
#291 = CIRCLE ( 'NONE', #90, 12.25000000000000000 ) ;
#292 = CIRCLE ( 'NONE', #185, 15.65000000000000000 ) ;
#293 = UNCERTAINTY_MEASURE_WITH_UNIT (LENGTH_MEASURE( 1.000000000000000100E-005 ), #39, 'distance_accuracy_value', 'NONE');
#294 = CARTESIAN_POINT ( 'NONE',  ( 0.0000000000000000000, 0.0000000000000000000, 0.0000000000000000000 ) ) ;
ENDSEC;
END-ISO-10303-21;
